>
 >
Tear Live

Tear Live Guitar Tabs

Smashing Pumpkins - Tear Live chords, tabs, tablatures, lyrics

Guitar lessons | Add/correct | Request | Top 50 tabs Artists:  A B C D E F G H I J K L M N O P Q R S T U V W X Y Z 0-9

Tear Live Guitar Tabs – Smashing Pumpkins

CD, Sheet music, Poster

Do you like Tear Live? Share with your friends now
Tabs
-------------------------------------------------------------------------------
-------------------------------------------------------------------------------

Tuning:1/2 Step Down


There isn't a great deal to this song, guitar wise. It's the whole band that makes this 
not just James and Billy,
I've just tabbed what i can hear without having to go into to much depth with stuff you 
barely hear.
 Pretty much this whole tab is James's section.Billy play the chords,there are 3 tabs of 
chords on
this site already and all three seem pretty good.
The interlude or what ever that quite part is in the middle is Billy playing and James 
in
with his awesome guitar and effects which I've tabbed out... once again if someone can 
better than my
tab please e-mail me!


Piano intro 0:00 - 1:26
|-------------------------------------------------------------------------------------------------|
|-------------------------------------------------------------------------------------------------|
|-------------------------------------------------------------------------------------------------|
|-----%---------------%-----------%-----------------%-------------%------------------%-------%----|
|-------------------------------------------------------------------------------------------------|
|-------------------------------------------------------------------------------------------------|

Intro:James 1:26 - 1:50
|-------------------------------------------------------------------------------------------------|
|-------------------------------------------------------------------------------------------------|
|12h11--9/-7/-5~h7-----12h11--9/-7/-5~h7-------12h11--9/-7/5-5-7--77/9-11----12h11--9/-7/-5~h7----|
|-----------------9~----------------------9~---------------------------------------------------9~-|
|-------------------------------------------------------------------------------------------------|
|-------------------------------------------------------------------------------------------------|

1:55 The Lights Came On Down
|-------------------------------------------------------------------------------------------------|
|-------------------------------------------------------------------------------------------------|
|-------------------------------------------------------------------------------------------------|
|-----%---------------%-----------%-----------------%-------------%------------------%-------%----|
|-------------------------------------------------------------------------------------------------|
|-------------------------------------------------------------------------------------------------|

To Watch You Numb
Billy:2:27
|-------------|
|---0---------|
|---2---------|
|---2---------|
|---0---------|
|---0---------|

2:33 James
|-------------------------------------------------------------------------------------------------|
|-------------------------------------------------------------------------------------------------|
|---12h11--9/-7/-5~h7-----12h11--9/-7/-5~h7-------12h11--9/-7/5-5-7--77/9-11--12h11--9/-7/-5~h7---|
|---------------------9~----------------------9~------------------------------------------------9~|
|-------------------------------------------------------------------------------------------------|
|-------------------------------------------------------------------------------------------------|

3:06 both play chords
|-------------|
|-------------|
|-----%-------|
|-------------|
|-------------|
|-------------|

4:07James                                p.h                                             
      p.h
|-------------------------------------------------------------------------------------------------|
|----------------------------------------12----------------------------------------------------12-|
|12h11--9/-7/-5~h7----12h11--9/-7/-5~h7------12h11--9/-7/5-5-7--77/9-11---12h11--9/-7/-5~h7-------|
|------------------9~------------------9~---------------------------------------------------9~----|
|-------------------------------------------------------------------------------------------------|
|-------------------------------------------------------------------------------------------------|


|-----------------------------------------------------------------------|
|-----------------------------------------------------------------------|
|---12h11--9/-7/-5~h7-----12h11--9/-7/-5~h7---------12h11-9/-7/-5~7-----|
|---------------------9~----------------------9~---------------------4~-|
|-----------------------------------------------------------------------|
|-----------------------------------------------------------------------|


This goes on for ages and it's anothing one of those improvised jams the pumpkins do.
I've done as much as i can work out the symbols and percussion are to much.
can help me out that would be awesome send me an e-mail. Billy's part goes through the 
whole part.
He just doesn't play the 17--19b part he repeats the 7-9-10-12-5


4:45 Massive piano solo interlude thing
|-------------|
|-------------|
|-----%-------|
|-------------|
|-------------|
|-------------|


5:12: Billy:
|------------------------------------------------------------------------------------------------|
|------------------------------------------------------------------------------------------------|
|------------------------------------------------------------------------------------------------|
|-7~--9~--10~--12~--5~-----7~--9~--10~--12~--5~-----7~--9~--10~--12~--17~--19b~------------------|
|------------------------------------------------------------------------------------------------|
|------------------------------------------------------------------------------------------------|

5:35: James
|------------------------------------------------------------------------------------------------|
|------------------------------------------------------------------------------------------------|
|-9~-11~-12~--14~--7~------9~--11~-12~-14~--7~---------------------------------------------------|
|------------------------------------------------------------------------------------------------|
|------------------------------------------------------------------------------------------------|
|------------------------------------------------------------------------------------------------|

James: 5:46                     5:52                                         6:11
|----0---0---0----0----0-------------------------------------------------------------------------|
|---0-0-0-0-0-0------------------12b~~---15bh12h15h12--11h12----11h12---------15h1715h1715h17~---|
|-9~--11~--12~--14~--7~-------------------------------------h12------h12-------------------------|
|------------------------------------------------------------------------------------------------|
|------------------------------------------------------------------------------------------------|
|------------------------------------------------------------------------------------------------|

6:17
|15h17-------------------------------------------------------------------------------------------|
|----17h15-17h15-17h15-17h15---------------------------------------------------------------------|
|--------------------------15h17-15h17-15h17-15h17-----------------------------------------------|
|------------------------------------------------15h17-15h17-15h17-15h17--15h16-15h16-15h16-15h16|
|------------------------------------------------------------------------------------------------|
|------------------------------------------------------------------------------------------------|

6:22
|-------------------------------------------|
|-17bh15h17b~~--19~~20~~21~~-------15~~-----|
|-------------------------------------------|
|-------------------------------------------|
|-------------------------------------------|
|-------------------------------------------|


Billy:6:54
|-------------------------------------------|
|--------------------------------8------10--|
|--------------------------------9------11--|
|--------------------------------10-----12--|
|----7~--9~--10~--12~--5~--------10-----12--|
|--------------------------------8------10--|

James6:56
|-------------------------------------------|
|--------------------------------8------10--|
|--------------------------------9------11--|
|--------------------------------10-----12--|
|-------15b----------------------10-----12--|
|------------------------------- 8------10--|

Billy:7:04
|-------------------------------------------|
|-------------------------------------------|This is the only part Billy plays
|---12h11--9/-7/-5~h7-----------------------|he then goes back to the intro chords
|---------------------9~--------------------|
|-------------------------------------------|
|-------------------------------------------|

James:7:04
|-------------------------------------------|
|-------------------------------------------|
|---12h11--9/-7/-5~h7-----------------------| James plays the rest of this damn it
|---------------------9~--------------------| sounds awesome.
|-------------------------------------------|
|-------------------------------------------|

7:10
|------------------------------------------------------------------------------------------------|
|------------------------------------------------------------------------------------------------|
|--16~~16~~-16~~h19h16---------/20~~-20~~-20~~half 20bfull release slowly--20~~~-----------------|
|------------------------------------------------------------------------------------------------|
|------------------------------------------------------------------------------------------------|
|------------------------------------------------------------------------------------------------|

7:20
|-----------------------19-17-16-17h16-17h16-17h16-17h16--12-------------------------------------|
|--------16-17-19-17-16--------------------------------------------------------------------------|
|-16-18------------------------------------------------------------------------------------------|
|------------------------------------------------------------------------------------------------|
|------------------------------------------------------------------------------------------------|
|------------------------------------------------------------------------------------------------|

7:26 The Lights Came On Fast   Dead Opra Motor Crash        Gone In A   Flash         Unreal
|------------------------------------------------------------------------------------------------|
|-----------------------------------------------------------------------------18-16-15-15h16h15--|
|-16~~16~~---16~~h19h16-----20~---20~---20b--20b-20b~----12-14-15-17-19-17-15--------------------|
|------------------------------------------------------------------------------------------------|
|------------------------------------------------------------------------------------------------|
|------------------------------------------------------------------------------------------------|

 In Nitrus Over Pass
|------------------|
|---9-9---8-7---4--|
|------------------|
|---7-7---6-5---2--|
|------------------|
|------------------|

Back to the verse and Billy finishes on Em 2nd fret James on 8th to get that thick whole sound.


************************************
|(0) play softly " ghost notes "
| /   slide up
| \   slide down
| h   hammer-on
| p   pull-off
| ~   vibrato
| +   harmonic
| x   Mute note
| b   Bend
| pb  Pre-bend
| br  Bend release
| pbr Pre-bend release
| brb Bend release bend
| #   Hold


************************************





Comments


Popular Smashing Pumpkins tabs & chords
Crestfallen 1 Bass Tabs
Glynis Bass Tabs
Jackie Blue 1 Bass Tabs
Meladori Magpie Chords
Bullet With Butterfly Wings Live Tabs
Jennifer Ever Tabs
Not Worth Asking Tabs
Dreaming Ukulele
My Mistake Ukulele
Quiet Ukulele


Song lyrics



↑ Back to top | Tablatures and chords are parodies/interpretations of the original songs. You may use it for private study, scholarship, research or language learning purposes only
© 2014 AZChords.com Contact us | Privacy policy | DMCA | Add/correct tabs | Request tabs | Top 50 tabs