>
 >
Real Love

Real Love Guitar Tabs

Smashing Pumpkins - Real Love chords, tabs, tablatures, lyrics

Guitar lessons | Add/correct | Request | Top 50 tabs Artists:  A B C D E F G H I J K L M N O P Q R S T U V W X Y Z 0-9

Real Love Guitar Tabs – Smashing Pumpkins

CD, Sheet music, Poster

Do you like Real Love? Share with your friends now
Bass TabsChordsTabs
the Smashing Pumpkins
Off MACHINA II: the friends and enemies of
Modern music (2000)/
Rotten Apples – the greatest Hits (2001)/
Not another Teen Movie OST (2002)
Actually released as a radio demo,
during the Adore Sessions.
Written by Billy Corgan
Drop Db Tuning

Yeah! This song rocks! There´s no great guitar
work in it but it´s just amazing how much
feeling´s in these lyrics and the heavy 
distorted but warm guitar sound. Enjoy this!


Intro:

Billy + James (distortion)
|---------------------------------|
|---------------------------------|
|------------------------7--7-----| 
|--7--7---7--7---7--7----7--7-----|
|--9--7---9--7---9--7----5--5-----|
|--7--7---7--7---7--7----0--0-----|


Verse:

Billy + James (distortion)
|---------------------------------|
|---------------------------------|
|------------------------7--7-----| 
|--7--7---7--7---7--7----7--7-----|
|--9--7---9--7---9--7----5--5-----|
|--7--7---7--7---7--7----0--0-----|

"Fall into the century on a supersonic cross, blessed she 
in aching silence, eternal loss"
 
Billy + James (distortion)
|---------------------------------|
|---------------------------------|
|------------------------7--7-----| 
|--7--7---7--7---7--7----7--7-----|
|--9--7---9--7---9--7----5--4-----|
|--7--7---7--7---7--7----0--0-----|

"Calling out: I won´t surrender a locket of her hair. Smpathize 
her pious pleasure, go down the stairs" 

Billy + James (distortion)
|----------0---0-----------0---0------|
|----------0---0-----------0---0------|
|----------0---0---7---7---0---0------|
|--5---4---2---2---7---7---2---2------|
|--5---4---2---2---5---4---2---2------|
|--5---4---2---2---0---0---2---2------|

"Into the dark again – to feel alive again and wait for"


Chorus:

Billy + James (distortion)
|------------------|3x-----------|
|------------------|-------------|
|------------------|-------------|
|--5---5---4---2---|--5---5------|
|--5---5---4---2---|--5---5------|
|--5---5---4---2---|--5---5------|

"Real Love, or is it me you´re after? Is it time?"
"Cause it´s now or never, Real Love"

Billy + James (distortion)
|----------0---0-----------0---0------|
|----------0---0-----------0---0------|
|--7---7---0---0---7---7---0---0------|
|--7---7---2---2---7---7---2---2------|
|--5---4---2---2---5---4---2---2------|
|--0---4---2---2---0---4---2---2------|

"born of the ball and chain into a world sustained with sorrow"

Billy + James (distortion)
|------------------|2x-----------|
|------------------|-------------|
|------------------|-------------|
|--5---5---4---2---|--5---5------|
|--5---5---4---2---|--5---5------|
|--5---5---4---2---|--5---5------|

"Real Love, Real Love forever, Real Love"


Bridge:

Billy + James (distortion)
|---------------------------------|
|---------------------------------|
|------------------------7--7-----| 
|--7--7---7--7---7--7----7--7-----|
|--9--7---9--7---9--7----5--5-----|
|--7--7---7--7---7--7----0--0-----|


Verse:

Billy + James (distortion)
|---------------------------------|
|---------------------------------|
|------------------------7--7-----| 
|--7--7---7--7---7--7----7--7-----|
|--9--7---9--7---9--7----5--5-----|
|--7--7---7--7---7--7----0--0-----|

"in the eyes behold, and you´ll find the 21st century,
you detonate her will and her widowed speech"
 
Billy + James (distortion)
|---------------------------------|
|---------------------------------|
|------------------------7--7-----| 
|--7--7---7--7---7--7----7--7-----|
|--9--7---9--7---9--7----5--4-----|
|--7--7---7--7---7--7----0--0-----|

"buried in the backyard shadows, the rusty coffee tin,
that held her mother´s first kiss in an endless dream" 

Billy + James (distortion)
|----------0---0-----------0---0------|
|----------0---0-----------0---0------|
|----------0---0---7---7---0---0------|
|--5---4---2---2---7---7---2---2------|
|--5---4---2---2---5---4---2---2------|
|--5---4---2---2---0---0---2---2------|

"fall down the stairs again – to feel alive against tomorrow" 


Chorus:

Billy + James (distortion)
|------------------|4x---------------------------|
|------------------|-----------------------------|
|------------------|----------7---7---7---7------|
|--5---5---4---2---|--5---5---7---7---7---7------|
|--5---5---4---2---|--5---5---5---4---5---4------|
|--5---5---4---2---|--5---5---0---4---0---4------|

"Real Love, or is it me you´re after? Is it time? Cause it´s now or
never. Real Love, Real Love forever, is it love? Or just yours to
treasure? Real Love, Real Love, Real Love!"


Interlude:

Billy + James (distortion)
|--0---0-----------|6x--0------|
|--0---0-----------|----0------|
|--0---0---7---7---|----0------|
|--2---2---7---7---|----2------|
|--2---2---5---4---|----2------|
|--2---2---0---4---|----2------|

"We never listened, Real Love we´re missing, 
and tell her of a fortune, Real Love is riches, 
scratch through the changes, Real Love is nameless,
so tired and helpless, Real Love is painless, 
nobody mentions, we ever move to collect the solar questions, 
demon scorn should not relax the laws of gravity"


Outro:

Billy + James (distortion)
|------------------------|
|------------------------|
|------------------------|
|--7--7---7--7---7--7----|
|--9--7---9--7---9--7----|
|--7--7---7--7---7--7----|

Billy + James (distortion)
|----------------------|
|----------------------|
|--7-------------------|
|--7-------------------|
|--5-------------------|
|--0-------------------|

"Real Love"


Real Love!





Comments


Popular Smashing Pumpkins tabs & chords
Glow Bass Tabs
Tear Bass Tabs
Perfect 1 Chords
Bullet With Butterfly Wings 1 Tabs
Bullet With Butterfly Wings 2 Tabs
Fol Tabs
Rhinoceros 1 Tabs
The Everlasting Gaze Tabs
The Rose March Intro Tabs
Whir Tabs


Song lyrics



↑ Back to top | Tablatures and chords are parodies/interpretations of the original songs. You may use it for private study, scholarship, research or language learning purposes only
© 2014 AZChords.com Contact us | Privacy policy | DMCA | Add/correct tabs | Request tabs | Top 50 tabs