» » »

Real Love Bass tabs (ver.1)

Artists:  A B C D E F G H I J K L M N O P Q R S T U V W X Y Z # 

Real Love Bass tabs (ver.1)

Smashing Pumpkins
Rating:
0/5 (0 votes)

Hard to play? Try these video lessons and learn fast.
                This was a little hard to do seeing as the whole Machina II album is middle and treble
but here it is. I'd say this is close to 90% correct. There are a few things that are
and hard to make out. This is just the basics, there sounds like a few runs to between 
but I can't make them out. The rhythm probably isn't dead on also its pretty much
the snare.

Intro
                   x3
|----------|----------|----|
|0---------|---------0|----|
|0---------|---------0|5~~~|
|-5-5-555--|-5-5-555--|----|
  q q qqq    q q qqq   w
     triplet     trip

(by the way anything that is like the 555 will be a triplet)

Verse (same as Intro) x2

on second time make the end this:

|------|
|------|
|-5--2-|
|------|
  h  h

Pre-Chorus x2

|--------|-------|-------|-------|
|--------|-------|-------|-------|
|-5-5-555|-------|-------|-------|
|--------|2-2-222|0-0-000|0-0-000|

Chorus (same as pre-chorus, just flip lengths of E and D)x4

|--------|--------|-------|-------|-------|
|--------|-------=|-------|-------|-------|
|-5-5-555|-5-5-555|-------|-------|-------|
|--------|--------|3-3-333|2-2-222|0-0-000|

Pre-Chorus x2

Chorus x4

Intro

Verse x2

Pre-Chorus x2

Chorus x6

Bridge x3 (this was tricky to figure out it might be wrong if you can check this for me
would be really appreciated)

|--------|--------|
|--------|--------|
|-4-4-444|-2-2-222|
|--------|--------|

Pre-Chrous- x8

Intro

end on the D
            
Hard to play? Try these video lessons and learn fast. | Correct




comments powered by Disqus
↑ Back to top | Tablatures and chords are parodies/interpretations of the original songs. You may use it for private study, scholarship, research or language learning purposes only