» » »

Smashing Pumpkins, Quiet Chords (ver.1)

Artists:  A B C D E F G H I J K L M N O P Q R S T U V W X Y Z # 

Quiet Chords (ver.1)

Smashing Pumpkins Tabs
Rating:
0/5 (0 votes)
Quiet lessons Tabs too difficult? Try these video lessons and learn fast
                QUIET- written by Billy Corgan       From: David

       This song is all power chords, so it's really easy to play.  I'm not
sure that this is 100% right, but it sounds right to me.

The riff after the weird intro goes like this:
  [------------------------------------------------------------]
  [------------------------------------------------------------]
  [------------------------------------------------------------]    
  [-4-4-4-4-4/5-5-5-5-5/7-7-7-7/9-9-9--------------------------] 
  [-4-4-4-4-4/5-5-5-5-5/7-7-7-7/9-9-9--------------------------]
  [-0h2-2-2-2/3-3-3-3-3/5-5-5-5/7-7-7--------------------------]
 play this riff 12 times (8X under singing)

Then this riff-The CHORUS-is played:
  [------------------------------------------------------------]
  [------------------------------------------------------------]
  [------------------------------------------------------------]
  [-11-2--2-2-2-2-2-2--11/9-9-9-9/7-7-7------------------------]
  [-11-2--2-2-2-2-2-2--11/9-9-9-9/7-7-7------------------------]
  [--9-0--0-0-0-0-0-0---9/7-7-7-7/5-5-5------------------------]
 play this riff 3.5 times

 During the last time, stop with the C#5 to B5 slide.

 under the solo, play the chorus riff and then go back to a variation of the
1st riff (just start moving up the fretboard on an E5 and end with an A5).
End with the CHORUS riff.

                    (Can someone please post some SP basstab)
                                  EN LA CASA!
            

comments powered by Disqus
↑ Back to top | Smashing Pumpkins Chords for Quiet. Lyrics for acoustic guitar and electric guitar. Tablatures and chords are parodies/interpretations of the original songs. You may use it for private study, scholarship, research or language learning purposes only