» » »

Quiet Bass tabs (ver.1)

Artists:  A B C D E F G H I J K L M N O P Q R S T U V W X Y Z # 

Quiet Bass tabs (ver.1)

Smashing Pumpkins
Rating:
0/5 (0 votes)

Tabs too difficult? Try these video lessons and learn fast.
                Smashing Pumpkins
Siamese Dream
Quiet

Tuning: Standard
This is 99% right.
First tab as well.
Intro/Main Riff
|-------------------------------------------------------------|
|-------------------------------------------------------------|
|-------------------------------------------------------------|
|-0h2222h3333h55555h77777-------------------------------------|


Chorus
|-------------------------------------------------------------|
|-------------------------------------------------------------|
|--44---77----------------------------------------------------|
|---------000------9/777777/555555----------------------------|
           ^^
         listen closely for the second two E's

Bridge
|-------------------------------------------------------------|
|-------------------------------------------------------------|
|-22222222--3333--4444--5555--6666--7777-88--99--10-10-11-11--|
|-------------------------------------------------------------|
Ok for the bridge play 2's for 8 counts. Then 3's & 4's for 4 counts.
5's,6's,7's for 2 counts. 8's, 9's, 10's, 11's for 1 count
**note** not correct amount listed play the counts.

Alternative Verse
|---------------------------------------------------------------|
|---------------------------------------------------------------|
|---------------------------------------------------------------|
|-0h2222h3333h5555----------------------------------------------|

**same as verse but with rhythem variation** used after bridge and chorus

Then Play Chorus then Alternative Verse


There ya go! Relatively Easy once you get the rhythem down.
            
Tabs too difficult? Try these video lessons and learn fast.




comments powered by Disqus
↑ Back to top | Tablatures and chords are parodies/interpretations of the original songs. You may use it for private study, scholarship, research or language learning purposes only