» » »

Smashing Pumpkins, Pug Tabs (ver.2)

Artists:  A B C D E F G H I J K L M N O P Q R S T U V W X Y Z # 

Pug Tabs (ver.2)

Smashing Pumpkins Tabs
 Rating:
4/5 (4 votes)
Pug lessons Tabs too difficult? Try these video lessons and learn fast
                artist- Smashing Pumpkins	
album - Adore
song  - Pug


standard tuning - E,A,D,G,B,E

x = mute 
/ = slide


intro;

E -------------------------------------------------------|
B ------0-----0-----0-----0-----0-----0-----0-----0------|
G ------4-----4-----4-----4-----4-----4-----4-----4------|
D --------------------------2-2---5-5---4-4---0-0--------|
A --0-0---3-3---2-2---5-5--------------------------------|
E -------------------------------------------------------|


later in song;

|------/5-3-----3-2-----2-0-------------/5-3-----3-2-----2-0--0-2-2-0-----|
|-------------------------------5-0---------------------------------------|
|-------------------------------------------------------------------------|
|---------------------------0-0-----2-2------5-5-----4-4------0-----------|
|--0-0------3-3-----2-2---------------------------------------------------|
|-------------------------------------------------------------------------|
            
Submit corrections

comments powered by Disqus
↑ Back to top | Smashing Pumpkins Tabs for Pug. Lyrics for acoustic guitar and electric guitar. Tablatures and chords are parodies/interpretations of the original songs. You may use it for private study, scholarship, research or language learning purposes only