» » »

Perfect Tabs (ver.2)

Artists:  A B C D E F G H I J K L M N O P Q R S T U V W X Y Z # 

Perfect Tabs (ver.2)

Smashing Pumpkins
Rating:
0/5 (0 votes)

Tabs too difficult? Try these video lessons and learn fast.
                Notes: song has been arranged for guitar.

Tuning: EBDGBE (the A string is tuned up a whole step. Be careful when you do this!)


Key:

() = Let note ring
^ = bend note up 1/2 step
~ = Vibrato note






Intro/Chorus

E |----------------------------------------------------------------------|
B |----------------------------------------------------------------------|
G |----------------------------------------------------------------------|
D |---2--4-4---2--4-4---2--4-4---2--4-4-----7--4~-4^-(4)-2-0-------------|
B |---3--3-3---3--3-3---3--3-3---3--3-3-----0--0--0------0-0-------------|
E |----------------------------------------------------------------------|

Verse

E |---------------------------------------|     3X
B |---0-0-0-0-0-0-0-0--0-0-0-0-0-0-0-0----|
G |---2-2-2-2-2-2-2-2--0-0-0-0-0-0-0-0----|
D |---0-0-0-0-0-0-0-0--2-2-2-2-2-2-2-2----|
B |---0-0-0-0-0-0-0-0--0-0-0-0-0-0-0-0----|  
E |---3-3-3-3-3-3-3-3--0-0-0-0-0-0-0-0----|

Verse prt 2

E |---------------------------------------|
B |---------------------------------------|
G |---------------------------------------|
D |---------------------------------------|
B |---0-0-0-0-0-0-0-0--0-0-0-0-0-0-0-0----|
E |---3-3-3-3-3-3-3-3--0-0-0-0-0-0-0-0----|


I will leave it up to YOU to find out where these go in the song. IT IS NOT HARD!
it took me FIVE months to figure this song out because of the wacko tuning. Please
be thankfull, and dont steal this tab and call it your own. I would have to chase 
after you with a pick ax. Well, I will go now. Keep them Pumpkins Smashing!

                              -SpongeBob FancyPants

Questions, comments, corrections, or are you really bored?
            
Tabs too difficult? Try these video lessons and learn fast.




comments powered by Disqus
↑ Back to top | Tablatures and chords are parodies/interpretations of the original songs. You may use it for private study, scholarship, research or language learning purposes only