>
 >
Ode To No One

Ode To No One Guitar Tabs

Smashing Pumpkins - Ode To No One chords, tabs, tablatures, lyrics

Guitar lessons | Add/correct | Request | Top 50 tabs Artists:  A B C D E F G H I J K L M N O P Q R S T U V W X Y Z 0-9

Ode To No One Guitar Tabs – Smashing Pumpkins

CD, Sheet music, Poster

Do you like Ode To No One? Share with your friends now
Tabs

Ode to No One

Eb tuning (eb,Bb,Gb,Db,Ab,Eb)slightly flat
This is a heavy fast song that is just 
Amazing with the lyrics.  Use a lot of bass
And some mids, not a lot of highs.  


  Intro/Verse: both guitars
eb|-----------------------------------------------|x2
Bb|-----------------------------------------------|
Gb|-----------------------------------------------|
Db|-----------------------------------------------|
Ab|-----------------------------------------------|
Eb|--2-2-2-2-2-2-2-2-2-2-2-2-2-2-2-2-2-2-2-2-2-2--|
   pm. . . . . . . . . . . . . . . . . . . . . .
|-------------------------------------------------|
|-------------------------------------------------|
|-------------------------------------------------|
|-------------------------------------------------|
|-------------------------------------------------|
|--5-5-5-5-5-5-5-5-5-5-5-5-5-5-5-5-5-5-5-5-5-5-5--|
 pm. . . . . . . . . . . . . . . . . . . . . . . 
|-------------------------------------------------|x2
|-------------------------------------------------|
|-------------------------------------------------|
|-------------------------------------------------|
|-------------------------------------------------|
|--2-2-2-2-2-2-2-2-2-2-2-2-2-2-2-2-2-2-2-2-2-2-2--|
 pm. . . . . . . . . . . . . . . . . . . . . . .
|-------------------------------------------------| * = pinch or artificial
|-------------------------------------------------|     harmonic 
|-------------------------------------------------|
|-------------------------------------------------|
|------------------------------------------0h2p0--|
|--2-2-2-2-2-2-2-2-2-2-2-2-2-2-2-2-2-2-2-2--------|
 pm. . . . . . . . . . . . . . . . * * * *         


 Chorus:  guitar 1
|-------------------------------------|x3-------------0~--|}x3
|-------------------------------------|---------------0~--|
|-------------------------------------|---------------1~--|
|--4-4--4-4--4-4--4-4-----------------|--4-4-4--------2~--|
|--4-4--4-4--4-4--4-4----------0h2p0--|--4-4-4--------2~--|
|--2-2--2-2--2-2--2-2----0h2p0--------|--2-2-2--0-0---0~--|
 Chorus:  guitar 2
|-------------------------------------|x3-------------0~--|}x3
|-------------------------------------|---------------0~--|
|-------------------------------------|---------------1~--|
|--4-4--4-4--4-4--4-4-----------------|--4-4-4--------2~--|
|--4-4--4-4--4-4--4-4----------0h2p0--|--4-4-4--------2~--|
|--2-0--2-0--2-0--2-0----0h2p0--------|--2-2-2--0-0---0~--|


 Verse 2:  Same

 
Chorus 2:  guitar 1
|-------------------------------------|x3-------------0~--|}x3
|-------------------------------------|---------------0~--|
|-------------------------------------|---------------1~--|
|--4-4--4-4--4-4--4-4-----------------|--4-4-4--------2~--|
|--4-4--4-4--4-4--4-4----------0h2p0--|--4-4-4--------2~--|
|--2-2--2-2--2-2--2-2----0h2p0--------|--2-2-2--0-0---0~--|
 Chorus 2:  guitar 2
|-------------------------------------|x3-------------0~--|}x3
|-------------------------------------|---------------0~--|
|-------------------------------------|---------------1~--|
|--4-4--4-4--4-4--4-4-----------------|--4-4-4--------2~--|
|--4-4--4-4--4-4--4-4----------0h2p0--|--4-4-4--------2~--|
|--2-0--2-0--2-0--2-0----0h2p0--------|--2-2-2--0-0---0~--|
 Chorus 2 ending: both
|-----------------------------------|
|-----------------------------------|
|-------2-2-2-4-4-4-4-4-4/6-6\---1--|
|-------2-2-2-4-4-4-4-4-4/6-6\---2--|
|-------0-0-0-2-2-2-2-2-2/4-4\x--2--|
|--0-0-----------------------\x--0--|


 Interlude: both guitars
|-------------------------------------------------|x3------0~--------|}x3
|-------------------------------------------------|--------0~--------|
|-------------------------------------------------|--------1---------|
|-------------------------------------------------|--------2~--------|
|-------------------------------------0h2p0-------|--------2~--------|
|--2-2-2-2-2-2-2-2-2-2-2-2-2-2--0h2p0--------0-2--|--2-2-0-0~---0h2--|
 pm. . . . . . . . . . . . . .


 Chorus type 2: both guitars
|---------------------------------------------------------------------
|---------------------------------------------------------------------
|---------------------------------------------------------------------
|--4-4--4-4--4-4--4-4-----6-6--6-6--6-6--6-6-----7-7--7-7--7-7--7-7---
|--x-x--x-x--x-x--x-x-----x-x--x-x--x-x--x-x-----x-x--x-x--x-x--x-x---
|--2-2--2-2--2-2--2-2p0h2/4-4--4-4--4-4--4-4p0h4/5-5--5-5--5-5--5-5/--

 --------------------------------------------------| x2
 --------------------------------------------------|
 --------------------------------------------------|
 --9-9--9-9--9-9--9-9-11-11--11-11--11-11\\\-------|
 --x-x--x-x--x-x--x-x-x--x---x--x---x--x-\\\-------|
 --7-7--7-7--7-7--7-7/9--9---9--9---9--9-\\\0-0-0--|

|--------------------------------------------------------0~--|
|--------------------------------------------------------0~--|
|--------------------------------------------------------1~--|
|--4-4------------4-4-----------4-4-----------4-4--------2~--|
|--4-4------0h2p0-4-4-----0h2p0-4-4-----0h2p0-4-4--------2~--|
|--2-2------------2-2-----------2-2-----------2-2/12\0---0~--|

|-------------------------------------------------|x8  the **4**
|-------------------------------------------------|    is the 2nd
|-------------------------------------------------|    guitar that
|--**4**------------------------------------------|    hits that note 
|-------------------------------------------------|    in a half artificial
|--2-2-2-2-2-2-2-2-2-2-2-2-2-2-2-2-2-2-2-2-2-2-2--|    and lets feed back 
 pm. . . . . . . . . . . . . . . . . . . . . . .       till stop of both 
|-------------------------------------------------|    guitars.  Also a 
|-------------------------------------------------|    slight variation 
|-------------------------------------------------|    in a slide would 
|-------------------------------------------------|    create this effect
|-------------------------------------------------|
|--2-2-2-2-2-2-2--2--2--2--2--2----2-----2-----2~-|
 pm. . . . . . . . . . . . . . . . . . . . . . .
 and coil my tongue around a bumble bee mouth!
 Both guitars
|------------------------------0------------------------------0~~~~--|
|------------------------------0------------------------------0~~~~--|
|--2----0-----------------2----x------------------------------1~~~~--|
|--2----2-----------------2----2----4~----x\---7----2---------2~~~~--|
|--0----2---(4)-----------0----2----4~----x\---7----2--4~-----2~~~~--|
|-------0----2~---/18\---------0----2~----x\---5----0--2~-----0~~~~--|

Chorus type 2: both guitars
|---------------------------------------------------------------------
|---------------------------------------------------------------------
|---------------------------------------------------------------------
|--4-4--4-4--4-4--4-4-----6-6--6-6--6-6--6-6-----7-7--7-7--7-7--7-7---
|--x-x--x-x--x-x--x-x-----x-x--x-x--x-x--x-x-----x-x--x-x--x-x--x-x---
|--2-2--2-2--2-2--2-2p0h2/4-4--4-4--4-4--4-4p0h4/5-5--5-5--5-5--5-5/--

 --------------------------------------------------| x2
 --------------------------------------------------|
 --------------------------------------------------|
 --9-9--9-9--9-9--9-9-11-11--11-11--11-11\\\-------|
 --x-x--x-x--x-x--x-x-x--x---x--x---x--x-\\\-------|
 --7-7--7-7--7-7--7-7/9--9---9--9---9--9-\\\0-0-0--|
              guitar 2 V
|----------------------17--------------------------------0~--|
|----------------------17--------------------------------0~--|
|--------------------------------------------------------1~--|
|--4-4------------4-4--14-------4-4-----------4-4--------2~--|
|--4-4------0h2p0-4-4--14-0h2p0-4-4-----0h2p0-4-4--------2~--|
|--2-2--/19\------2-2-----------2-2-/18\------2-2/12\0---0~--|

 Solo:  guitar 1 -- guitar 2 plays chorus riff twice
|----------------------------------------------------------
|------------------19gb21gr19b20r19b22r19--17b19-----------
|-------------------------------------------------16b17-14-
|----------------------------------------------------------
|--///16-16-16-16------------------------------------------
|----------------------------------------------------------
 
 -------------------------------------------------------------------
 -------------------------------------------------------------------
 --14----14-16-14----14-16-14---------------------------------------
 -----16----------16----------16-------------16b1716b17b16b17-*16*--
 --------------------------------16-14b16-14------------------------
 -------------------------------------------------------------------

 --------------17b18--17b19\\\------------------------------------------
 -----------------------------------7-10b11---7-------------------------
 ------------------------------9b10---------9---9-9-9\4/11h12p11h12p11--
 -----------------------------------------------------------------------
 -----------------------------------------------------------------------
 --0-0////15------------------------------------------------------------

 --------------------------------------------------------------------19b22--|
 --10----9h10p9----9h10p9---------------------17b18-14-17-14-17/19b21-------|
 -----11--------11--------11-9----11h16p14h16-------------------------------|
 ------------------------------11-------------------------------------------|
 ---------------------------------------------------------------------------|
 ---------------------------------------------------------------------------|

 Chorus type 2 riff(2) guitar 1 x3 guitar 2:
|--19~~~~~~~~~~~b20~~~~~~~r19~~~~~~~~~~~~~~~~~~~~~~~~~~~~~~~~~~--|
|----------------------------------------------------------------|
|----------------------------------------------------------------|
|----------------------------------------------------------------|
|----------------------------------------------------------------|
|----------------------------------------------------------------|

|----------------------------17--------------------------------0~--|
|----------------------------17--------------------------------0~--|
|--------------------------------------------------------------1~--|
|--4-4---------------4-4-----14-------4-4-----------4-4--------2~--|
|--4-4---------0h2p0-4-4-----14-0h2p0-4-4-----0h2p0-4-4--------2~--|
|--2-2-----/19\------2-2--------------2-2-/18\------2-2/12\0---0~--|





Comments


Popular Smashing Pumpkins tabs & chords
Love 2 Bass Tabs
The Celestials Bass Tabs
With You Bass Tabs
East Chords
Rotten Apples Chords
Blank Page Tabs
Drown 1 Tabs
Heavy Metal Machine 1 Tabs
Here's To The Atom Bomb Tabs
If All Goes Wrong Ukulele


Song lyrics



↑ Back to top | Tablatures and chords are parodies/interpretations of the original songs. You may use it for private study, scholarship, research or language learning purposes only
© 2014 AZChords.com Contact us | Privacy policy | DMCA | Add/correct tabs | Request tabs | Top 50 tabs