» » »

An Ode To No One Bass tabs (ver.1)

Artists:  A B C D E F G H I J K L M N O P Q R S T U V W X Y Z # 

An Ode To No One Bass tabs (ver.1)

Smashing Pumpkins
Rating:
0/5 (0 votes)

Hard to play? Try these video lessons and learn fast.
                Tuning: Half Step Down

(Since each note is played way too many time to write, 
just play each note a bunch at half the speed of the the guitar)
Intro
G:---------------------------
D:---------------------------
A:---------------------------
E:---2-----------------------

Verse (When vocals come in :08)
G:---------------------------
D:--------------------------- X2
A:---------------------------
E:---2-------5-------2-------

Chorus 1
G:----------------------------------------------------------------------------
D:----------------------------------------------------------------------------
A:----------------------------------------------------------------------------X3
E:---7p5-2-222-22-0h2---7p5-2-222-22-0h2---7p5-2-222-22-0h2---7p5-2-222-22-0--

Verse 2
G:---------------------------
D:---------------------------
A:---------------------------
E:---2-------5-------2-------

Chorus 2
G:----------------------------------------------------------------------------
D:---------------------------------------------------------------------------- X2
A:----------------------------------------------------------------------------
E:---7p5-2-222-22-0h2---7p5-2-222-22-0h2---7p5-2-222-22-0h2---7p5-2-222-22-0--

Chorus 2 (cont.)
G:----------------------------------------------------------------------------------
D:----------------------------------------------------------------------------------
A:----------------------------------------------------------------------------------
E:---5-7-77-9-0-22222222-0h2---7p5-22222222-0h2---7p5-22222222-0h2---7p5-22222222-0--

("Destroy the Mind...")
G:----------------------------------------------------------------------------
D:---------------------------------------------------------------------------- X2
A:----------------------------------------------------------------------------
E:---7p5-22222222-0h2---7p5-22222222-0h2---7p5-22222222-0h2---7p5-22222222-0--

("And you...")
G:----------------------------------------------------------------------------------------
D:----------------------------------------------------------------------------------------
A:----------------------------------------------------------------------------------------X2
E:---7p5-2-222-22-0h2---7p5-2-222-22-0h2---7p5-2-222-22-0h2---7p5-2-222-22-0--(0)-(2)(2)--

Link
G:-------------------------------------------------
D:-------------------------------------------------
A:-------------------------------------------------
E:---7p5-22-2---7p5-22-2---7p5-22-2---7p5-22-2--0--

Bridge (Play at same pace as beginning but slow pace with drums)
G:---------------------------
D:---------------------------
A:---------------------------
E:---2-----------------------

(" And I give it all back to you...")
G:----------------------------------------------
D:----------------------------------------------
A:----------------------------------------------
E:---5--0--2-2/9\---5--0--2-2/9\---5--0--2---0--

Chorus 3 to end("No way...")
G:----------------------------------------------------------------------------------------
D:----------------------------------------------------------------------------------------
A:---------------------------------------------------------------------------------------- X2
E:---7p5-2-222-22-0h2---7p5-2-222-22-0h2---7p5-2-222-22-0h2---7p5-2-222-22-0--(0)-(2)(2)--

G:----------------------------------
D:----------------------------------
A:----------------------------------
E:---7p5-22-2---7p5-22-2---2-2---0--

G:----------------------------------------------------------------------------------------
D:----------------------------------------------------------------------------------------
A:---------------------------------------------------------------------------------------- X5
E:---7p5-2-222-22-0h2---7p5-2-222-22-0h2---7p5-2-222-22-0h2---7p5-2-222-22-0--(0)-(2)(2)--

G:-------------------------------------------------
D:-------------------------------------------------
A:-------------------------------------------------
E:---7p5-22-2---7p5-22-2---7p5-22-2---7p5-22-2--0--
            
Hard to play? Try these video lessons and learn fast. | Correct




comments powered by Disqus
↑ Back to top | Tablatures and chords are parodies/interpretations of the original songs. You may use it for private study, scholarship, research or language learning purposes only