» » »

Smashing Pumpkins, Never Let Me Down Again Tabs (ver.1)

Artists:  A B C D E F G H I J K L M N O P Q R S T U V W X Y Z # 

Never Let Me Down Again Tabs (ver.1)

Smashing Pumpkins Tabs
 Rating:
4/5 (4 votes)
Never Let Me Down Again lessons Tabs too difficult? Try these video lessons and learn fast
1
                
Never Let Me Down - by Smashing Pumpkins from the Rocket single

*1

G1, D ("Grunge") tuning, clean tone

|--------------------------------------------
|--------------------------------------------
|---0----0------0----0---0-------------------
|------3-----------3---3---------------------
|--------------------------------------------
|-5--------5--5------------------------------
                           ^repeat

*2

G2, clean tone
enter with drums

|--------1-----------1-/-5-5---5---3~--------
|-3--1-3---3---3-1-3-------------------------
|----------------------------0---0-----------
|--------------------------------------------
|--------------------------------------------
|--------------------------------------------
                                    ^repeat a few times

*3

Lead fill cont.

|--------1-------------3-1-3--3-(/5)---------
|-3--1-3---1--1---1--------------------------
|---------------3---0------------------------
|--------------------------------------------
|--------------------------------------------
|--------------------------------------------

*4

G1 and G2

Verse:

|-0-----0------------------------------------
|-2-----1------------------------------------
|-3-----0-------0---0------0----0---0--------
|-0-----2---------3-----------3---3----------
|-0-----3------------------------------------
|-0-----------5-------5--5-------------------

Chorus:

|-0---0--------------------------------------
|-1---1---3-3-3--3---------------------------
|-0---0---3-3-3--3---------------------------
|-2---2---3-3-3--3---5-5-5--5---3-3-3--------
|-3---3---1-1-1--1---5-5-5--5---3-3-3--------
|--------------------5-5-5--5---3-3-3--------

Outro:

|--------------------------------------------
|-5hb--7hb--9hb--10hb------------------------
|--------------------------------------------
|--------------------------------------------
|--------------------------------------------
|--------------------------------------------
                      
|--------------------------------------------
|-5hb--7hb--9hb--10hb------------------------
|--------------------------------------------
|--------------------------------------------
|--------------------------------------------
|--------------------------------------------

|--------------------------------------------
|-5hb--7hb--9hb--10hb------------------------
|--------6hb---------------------------------
|--------------------------------------------
|--------------------------------------------
|--------------------------------------------
                      ^repeat with addded bends

|--------------------------------------------
|-12hb--14hb---------------------------------
|--------------------------------------------
|--------------------------------------------
|--------------------------------------------
|--------------------------------------------
            keep bending the C# to G eventually 
            holding the note for a gradual release
            for the end.

Don't have the chords for the outro.  If anyone does please 
let me know to revise this TAB.  Thanks.... Enjoy!

Lyrics:

I'm takin' a ride with my best friend.
I hope he never lets me down again.
He knows where he's takin' me,
Takin' me where I wanna be.
I'm takin' a ride with my best friend.

We're flyin' high
Watchin' the road pass us by.
Never want to come down, 
Never want to put my feet back down on the ground.

I'm takin' a ride with my best friend.
I hope he never lets me down again.
Promise me I'm safe as houses
As long as I remember who's wearin' the trousers.
I hope he never lets me down again.

Chorus

See the stars they're shinin' bright
Everything's all right tonight.
See the stars they're shinin' bright
Everything's all right tonight.
            
Submit corrections

comments powered by Disqus
↑ Back to top | Smashing Pumpkins Tabs for Never Let Me Down Again. Lyrics for acoustic guitar and electric guitar. 1 Tablatures and chords are parodies/interpretations of the original songs. You may use it for private study, scholarship, research or language learning purposes only