>
 >
Marquis In Spades 2

Marquis In Spades 2 Bass Tabs

Smashing Pumpkins - Marquis In Spades 2 chords, tabs, tablatures, lyrics

Guitar lessons | Add/correct | Request | Top 50 tabs Artists:  A B C D E F G H I J K L M N O P Q R S T U V W X Y Z 0-9

Marquis In Spades 2 Bass Tabs – Smashing Pumpkins

CD, Sheet music, Poster

Do you like Marquis In Spades 2? Share with your friends now
Bass TabsBass Tabs v2TabsTabs v2Tabs v3Tabs v4
================================================================================
                       S M A S H I N G   P U M P K I N S

                                       -

                       M A R Q U I S   I N   S P A D E S
================================================================================


                             THE AEROPLANE FLIES HIGH
                                  [Zero Single]
                            (c) Virgin Records (1996)


                               Tune Down a 1/2 Step
                                   D# G# C# F#

                                  Tempo = 85 BPM
                               Time Signature = 4/4



                          -----------------------------

                                 PADDY MCMULLAN

                                   Version 1.0
                               21st November 2010
                             -----------------------

                             Tablature Symbols Used:


 (/)       -  Legato Slide (Blank space indicates length of slide)
 \         -  Slide Down to/Down From (Blank space indicates length of slide)
 /         -  Slide Up To/Up From (Blank space indicates length of slide)
 ( )       -  Ghost Note/Tied Note/Implied Note
 REST      -  Rest and sustain rest for duration of blank space
 |__[1,2]  -  Alternative Endings
 |_3_|     -  Triplet Notes




================================================================================
Rest for 2 bars
================================================================================

================================================================================
Part 1:                                                   [ Time 00:00 - 00:19 ]
================================================================================


||----------------------------|---------------------------------|
||----------------------------|---------------------------------|
||-------------6-6---6--------|------------------6-6---6--------|
||--3----3--3/---------6--0-0-|--(1/3)-3-3-3--3/---------6--0-0-|

                                                      |___3____|  |__3__|
|---------------------------------|----------------------------------------|
|---------------------------------|----------------------------------------|
|-------------------6-6---6-------|-------------------------------8--8-----|
|--(1/3)-3-3-3--3/---------6--0-0-|--(6/8)-8-8-8--8-0-10--10--10--------0--|


|-----------R--   ------||
|-----------E--   ------||
|-----------S--   ------||
|--3----3---T--   --6\ -||



================================================================================
Part 2:                                                   [ Time 00:19 - 00:37 ]
================================================================================


||------------------------|-------------------------------|
||------------------------|-------------------------------|
||--6----6---0-8----------|-------------------------------|
||------------------6---0-|--(6/8)--8-8---8-8---8-8\ -0-0-|


|------------R--    --|----------------------------|------------------------|
|------------E--    --|----------------------------|------------------------|
|------------S--    --|----------------------------|--6----6---0-8----------|
|--3----3----T--    --|--3----3----3-1-1-1-1-1-1-0-|------------------6---0-|


|-------------------------------||
|-------------------------------||
|-------------------------------||
|--(6/8)--8-8---8-8---8-8-0-8-6-||



================================================================================
Part 3:                                                   [ Time 00:37 - 01:00 ]
================================================================================


|____________________________________________________[1,2,3]
||--------------------------|----------------------------| |
||--------------------------|----------------------------|*|
||--------------------------|--6---6-6-----8---8-8-------|*| x 4
||--6---6-6---0-8---8-8---0-|------------0---------0-8-6-| |

|______________________________________________________________[4]
|---------------------------|-----------------------------------||
|---------------------------|-----------------------------------||
|---------------------------|-----------------------------------||
|--6---6-6---0-8---8-8--0-0-|--1-1-0-0-1-1-0-0-(1/3)-3-3-3-- /--||



================================================================================
Part 4:                                                   [ Time 01:00 - 01:13 ]
================================================================================


||-------------------------------|---------------------------------|
||-------------------------------|---------------------------------|
||--6----------------------------|--6--6---------------------------|
||-------6--0-0-(1/3)-3-3-3--0-0-|-------0-6--6-0-(1/3)-3-3-3--0-0-|


                                     |__3__|  |__3__|
|-------------------------------| |--------------------| |
|-------------------------------|2|--------------------|4|
|--6----------------------------|/|--5--5--5--8--8-----|/|
|-------6--0-0-(6/8)-8-8-8--0-0-|4|-----------------0--|4|


|----------------------------||
|----------------------------||
|----------------------------||
|--3----3----3-1-1-1-1-1-1-0-||



================================================================================
Part 5: Repeat Part 2                                     [ Time 01:13 - 01:41 ]
================================================================================

================================================================================
Part 6: Repeat Part 4                                     [ Time 01:41 - 01:51 ]
================================================================================

================================================================================
Part 7:                                                   [ Time 01:51 - 02:08 ]
================================================================================


||----------------------|-----------------------|----------------------------|
||----------------------|-----------------------|----------------------------|
||--6-------------------|-----------------------|----------------------------|
||------------------0-0-|--3----------------3/6-|--8---8-8--8-7-6---6-6--0-0-|


|----------------------------|----------------------|
|----------------------------|----------------------|
|--6---6-6--6-7-8---8-8------|----------------------|
|------------------------8-8-|--8---------------0-0-|


|---------------------------------||
|---------------------------------||
|--6--6-6-6-6-----8-8-8-8-9-9-9-9-||
|-------------0-0-----------------||



================================================================================
Part 8:                                                   [ Time 02:08 - 02:20 ]
================================================================================


This part is a variation of Part 4 with the main elements of the riffs being
played back-to-front.


||-------------------------------| |
||-------------------------------|*|
||-------------------6-----------|*| x 3
||--(1/3)-3-3-3--0-0------6--0-0-| |


                    |__3__|  |__3__|
|-------------------------------------||
|-------------------------------------||
|-------------------5--5--5--8--8-----||
|--(6/8)-8-8-8--0-0----------------0--||



================================================================================
Part 9:                                                   [ Time 02:20 - 02:42 ]
================================================================================


||--------------------------|--------------------------------| |
||--------------------------|--------------------------------|*|
||--------------6----6--6-6-|--------------(6/8)-8-8-8-------|*| x 4
||--3----3--0-0-------------|--6----6--6-6-------------8-8-0-| |



================================================================================
Outro:                                                    [ Time 02:42 - 03:12 ]
================================================================================


||-------------------------------------| |
||-------------------------------------|*|
||-------------------------------------|*| x 7
||--(1/3)-0-0-(1/3)-0-3-0-3-0-5-6--0-0-| |


|-------------------------------------||
|-------------------------------------||
|-------------------------------------||
|--(1/3)-0-0-(1/3)-0-3-0-3-0-5-6------||



================================================================================
End
================================================================================


Tab summary:        Part 1
                    Part 2
                    Part 3
                    Part 4
                    Part 5
                    Part 6
                    Part 7
                    Part 8
                    Part 9
                    Outro

                    END





Comments


Popular Smashing Pumpkins tabs & chords
Silverf**K Bass Tabs
Beautiful 1 Chords
Bleed Chords
Jupiters Lament 1 Chords
Luna Chords
Suffer Chords
Cherub Rock 1 Tabs
Spaceboy Tabs
The Rose March Tabs
Peace Love Ukulele


Song lyrics



↑ Back to top | Tablatures and chords are parodies/interpretations of the original songs. You may use it for private study, scholarship, research or language learning purposes only
© 2014 AZChords.com Contact us | Privacy policy | DMCA | Add/correct tabs | Request tabs | Top 50 tabs