» » »

Let Me Give The World To You Tabs (ver.1)

Artists:  A B C D E F G H I J K L M N O P Q R S T U V W X Y Z # 

Let Me Give The World To You Tabs (ver.1)

Smashing Pumpkins
Rating:
0/5 (0 votes)

Hard to play? Try these video lessons and learn fast.
                *Let me Give the World to You*
Album Machina II


Tuning: Eb Ab Db Gb Bb Eb


Inrto and verse
                                       x4
|-0--0--0--0--4--------2--------0--------|
|-0--0--0--0--5--------4--------2--------|
|-11-13-11-13-6--------4--------2--------|
|-X--X--X--X--6--------4--------2--------|
|-9--11-9--11-4--------2--------0--------|
|-0--0--0--0-----------------------------|


Chorus

|-4--------2--------5----5----0----0----|
|-4--------2--------5----5----0----0----|
|-4--------3--------6----5----1----1----|
|-6--------4--------7----7----2---(1)---|
|-6--------4--------7----7----2----2----|
|-4--------2--------5----5----0----0----|

|-4--------2----5----5----|
|-4--------2----5----5----|
|-4--------3----6----5----|
|-6--------4----7----7----|
|-6--------4----7----7----|
|-4--------2----5----5----|


2nd verse the same


2nd chorus
|-4--------2--------5----5----0----0----|
|-4--------2--------5----5----0----0----|
|-4--------3--------6----5----1----1----|
|-6--------4--------7----7----2---(1)---|
|-6--------4--------7----7----2----2----|
|-4--------2--------5----5----0----0----|

|-0----4----2----5----5----|
|-2----5----2----5----5----|
|-2----6----3----6----5----|
|-2----6----4----7----7----|
|-0----4----4----7----7----|
|-----------2----5----5----|


BRIDGE
                   x2
|-0----0----4--------|
|-0----0----4--------|
|-1----1----4--------|
|-2---(1)---6--------|
|-2----2----6--------|
|-0----0----4--------|

|-0----0----4--------2--------5----4----|
|-0----2----4--------4--------5----4----|
|-1----2----4--------4--------6----4----|
|-2----2----6--------4--------7----6----|
|-2----0----6--------2--------7----6----|
|-0---------4-----------------5----4----|


OUTRO
                                       x5
|-0--0--0--0--4--------2--------0--------|
|-0--0--0--0--5--------4--------2--------|
|-11-13-11-13-6--------4--------2--------|
|-X--X--X--X--6--------4--------2--------|
|-9--11-9--11-4--------2--------0--------|
|-0--0--0--0-----------------------------|
            
Hard to play? Try these video lessons and learn fast. | Correct




comments powered by Disqus
↑ Back to top | Tablatures and chords are parodies/interpretations of the original songs. You may use it for private study, scholarship, research or language learning purposes only