» » »

Smashing Pumpkins, La Dolly Vita Bass tabs (ver.1)

Artists:  A B C D E F G H I J K L M N O P Q R S T U V W X Y Z # 

La Dolly Vita Bass tabs (ver.1)

Smashing Pumpkins Tabs
Rating:
0/5 (0 votes)
La Dolly Vita lessons Tabs too difficult? Try these video lessons and learn fast
                Tunning: E A D G 

Riff 1
G|-------------------------|-----|
D|-------------------------|-----|
A|-------------------------|-----|
E|1h3-3-1-3-3-1h3-3-1-3-3--|8-7--|

This little Fill at the end of Riff 1 is played 
right after he says "See no greater
Wisdom.." Then just Play Riff 1 like it never Happened
This will be Added throught the Whole song
So just Listen For it.

When Billy Starts to sing "Cool as Ice cream" Wait for the
the second time he says it then play this:

Riff 2
G|-----------|
D|-----------|
A|-----------|
E|8-7-4-4-4--|

Then go back to Riff 1

When billy sings "Fade away..." Play this:

Riff 3
G|---------------------------|
D|---------------------------|
A|---------------------------|
E|8-8-8-8-8-1h3-3-3-1-3h4-3--|

Right after you play Riff 3 once play this:

Riff 4
G|---------------------------------------------|
D|---------------------------------------------|
A|---------------------------------------------|
E|8-8-8-8-8-8-3-1-3-1-3-1-3-1-3-1-3-1-3-1-3-1--|

Then go back up to Riff 1. and again at the "Cool as Ice Cream"
part add Riff 2 switching between that and Riff 1

let the guitars play the Quiet part the come in softly with Riff 5
and grow in loudness until the end:

Riff 5
G|-------------|
D|-------------|
A|10-8-8-8-10--|
E|-------------|

SPEACIAL NOTE: That is not the correct ending to that song
and i know it. Im just really tired and need to go to bed. If
you have figured out the end of the song send it please. Other
wise the part that is tabbed(riff 5) fits nicely

This Tab was made by Nathan Amber. Send comments
            

comments powered by Disqus
↑ Back to top | Smashing Pumpkins Bass for La Dolly Vita. Lyrics for acoustic guitar and electric guitar. Tablatures and chords are parodies/interpretations of the original songs. You may use it for private study, scholarship, research or language learning purposes only