» » »

Heavy Metal Machine Bass tabs (ver.2)

Artists:  A B C D E F G H I J K L M N O P Q R S T U V W X Y Z # 

Heavy Metal Machine Bass tabs (ver.2)

Smashing Pumpkins
Rating:
0/5 (0 votes)

Tabs too difficult? Try these video lessons and learn fast.
                *Heavy Metal Machine*
The Smashing Pumpkins

Tuning: C G C F 

This is my first tab so forgive me if there are any errors and if you find any e-mail me  

INTRO
                        x8
|-------------------------|
|---------------------4h5-|
|---------3h5-----3h5-----|
|-0-0-4h5-----0-0---------|


VERSE
                        x4
|-------------------------|-----------|
|---------------------4h5-|-----------|
|---------3h5-----3h5-----|-----------|
|-0-0-4h5-----0-0---------|-2222-5555--|

|-------------------------|----------|
|---------------------4h5-|----------|
|---------3h5-----3h5-----|----------|
|-0-0-4h5-----0-0---------|-2222-5555-|

|-------------------------|--------------------|
|---------------------4h5-|--------------------|
|---------3h5-----3h5-----|--------------------|
|-0-0-4h5-----0-0---------|-222222222-1111-5555-|


PRECHORUS
|-------------------------------------|
|-------------------------------------|
|-55555555-44444444-------------------|
|-------------------55555555-55555555-|



|------------------|
|------------------|
|------------------|
|-00000000-0000000-|


CHORUS

|-------------------------------------------------------------------------|
|-------------------------------------------------------------------------|
|-11111111-------------------------------------33333333-------------------|
|----------33333333-55555555-00000000-11111111----------55555555-00000000-|

|---------------------------------------------------------------|
|---------------------------------------------------------------|
|-11111111----------------------------33333333------------------|
|----------33333333-11111111-00000000----------55555555-0000000-|


BRIDGE
                                    x2
|-------------------------------------|
|-------------------------------------|
|-------------------------------------|
|-11111111-00000000-66666666-55555555-|

|-------------------|
|-------------------|
|-------------------|
|-00000000-00000000-|


Repeat all above then go to 

OUTRO
                       x20
|-------------------------|
|---------------------4h5-|
|---------3h5-----3h5-----|
|-0-0-4h5-----0-0---------|

                           x12
|-----------------------------|
|-------------------3-5-5b6r5-|
|---------3h5---3h5-----------|
|-0-0-5h6-----0---------------|

            x8
|-------------|
|------5b6r5--|
|-------------|
|-0-0---------|

End on
|-----------|
|-0-0-0-----|
|-0-0-0-----|
|-0-0-0-----|
            
Tabs too difficult? Try these video lessons and learn fast.




comments powered by Disqus
↑ Back to top | Tablatures and chords are parodies/interpretations of the original songs. You may use it for private study, scholarship, research or language learning purposes only