» » »

Smashing Pumpkins, God Tabs (ver.2)

Artists:  A B C D E F G H I J K L M N O P Q R S T U V W X Y Z # 

God Tabs (ver.2)

Smashing Pumpkins Tabs
Rating:
0/5 (0 votes)
God lessons Tabs too difficult? Try these video lessons and learn fast
                "God" performed by Smashing Pumpkins
Tune down 1/2 step (Eb, Ab, Db, Gb, Bb, Eb)

Opening Bassline

Billy & James (heavy distortion)
   D5          A5
--------------------------------
--------------------------------
---7--7--7--7-------------------
---7--7--7--7--7--7-------------
---5--5--5--5--7--7-------------
---------------5--5-------------

Chorus: (Billy & James)
1st Part
 D5          A5        E5    F#5   D5         A5
------------------------------------------------------------
------------------------------------------------------------
--7--7--7--7-----------------------7--7--7------------------
--7--7--7--7--7--7--7---2--2--4----7--7--7----7--7--7-------
--5--5--5--5--7--7--7---2--2--4----5--5--5----7--7--7-------
--------------5--5--5---0--0--2---------------5--5--5-------

2nd Part 
   F#5 F5 E5     A5  B5  F#5 F5 E5    A5 B5
------------------------------------------------------------
------------------------------------------------------------
------------------------------------------------------------
---4--4s3s2--2----7--9---4--4s3s2--2---7--9-----------------
---4--4s3s2--2----7--9---4--4s3s2--2---7--9-----------------
---2--2s1s0--0----5--7---2--2s1s0--0---5--7-----------------

Interlude:
   D5             E5   E5(2)D5 B5  A5  E5 E5(2)D5B5 A5
-------------------------------------------------------
-----------7b------------------------------------------
---7--7-------X4--------9---7--------------9--7--------
---7--7------------2----9---7---9--7---2---9--7-9--7---
---5--5------------2----7---5---9--7---2---7--5-9--7---
-------------------0------------7--5---0--------7--5---

For the outro just play the second part of the chorus riff.
            
Submit corrections

comments powered by Disqus
↑ Back to top | Smashing Pumpkins Tabs for God. Lyrics for acoustic guitar and electric guitar. Tablatures and chords are parodies/interpretations of the original songs. You may use it for private study, scholarship, research or language learning purposes only