» » »

Glynis Tabs (ver.2)

Artists:  A B C D E F G H I J K L M N O P Q R S T U V W X Y Z # 

Glynis Tabs (ver.2)

Smashing Pumpkins
Rating:
0/5 (0 votes)

Hard to play? Try these video lessons and learn fast.
                
GLYNIS - by Smashing Pumpkins from the compilation
         Written by William P. Corgan, Jr.

Bass line

|---------------------------------
|---------------------------------
|-5-7-9-12-10-10-10-0-3-3---------
|---------------------------------

All guitars in Drop D

*1

|------------------------------------------------------
|--------------------12--12-12--\5-5--5----------------
|-7--9--11-14-12-----12--12-12--\5-5--5----------------
|-X--X--X--X--X--X-X-12--12-12--\5-5--5----------------
|-5--7--9--12-10-X-X-10--10-10--\3-3--3----------------
|-0--0--0--0--0--X-X(0)--------------------------------
                                       ^repeat

*2

|------------------------------------------------------
|-7--7--7--5-5-----12--12-12--\5-5--5--12--------------
|-0--0--0--5-5-X-X-12--12-12--\5-5--5--12--------------
|-5--5--5--5-5-X-X-12--12-12--\5-5--5--12--------------
|-7--7--7--3-3-X-X-10--10-10--\5-5--5--10--------------
|------------------------------------------------------
                                     ^repeat
                                       ^last time only (G)

*3

|-------------0---0---0----------------------------------
|-------------0---0---0--0---0---0-----------------------
|-7--9--11-9--2---2---2--0---0---0-----------------------
|-X--X--X--X--2---2---2--0---0---0-----------------------
|-5--7--9--7--0---0---0--X---X---X-----------------------
|-0--0--0--0--X----------5---5---5-----------------------
               ^add rhythm strums^ ^repeat
                in here

*4

After wah'd solo

This probably isn't right, but it sound OK `till I get it.

|-0--0--0--3--3--3--0--0---------------------------------
|-0--0--0--3--3--3--3--3---------------------------------
|-2--2--2--0--0--0--2--2---------------------------------
|-2--2--2--0--0--0--0--0---------------------------------
|-0--0--0--2--2--2--0--0---------------------------------
|-------------------0--0---------------------------------
                        ^keep strummin' the Ds..
                         ust listen to the record..
            
Hard to play? Try these video lessons and learn fast. | Correct




comments powered by Disqus
↑ Back to top | Tablatures and chords are parodies/interpretations of the original songs. You may use it for private study, scholarship, research or language learning purposes only