>
 >
Glow

Glow Guitar Tabs

Smashing Pumpkins - Glow chords, tabs, tablatures, lyrics

Guitar lessons | Add/correct | Request | Top 50 tabs Artists:  A B C D E F G H I J K L M N O P Q R S T U V W X Y Z 0-9

Glow Guitar Tabs – Smashing Pumpkins

CD, Sheet music, Poster

Do you like Glow? Share with your friends now
Bass TabsBass Tabs v2Tabs

Tuning:	Db Ab Db Gb Bb Eb

Key:

~ = vibrato
h = hammer on
p = pull off
\ = slide
b = bend

	Guitar 1 (Fade in with Heavy Distortion)

	e|-------|
	B|-------|
	G|-(5~)--|
	D|-------|
	A|-(3~)--|
	D|-------|


  	  "Fool, you love yourself"
	e|-----------------------------------------|
	B|-----------------------------------------|
	G|--5--------------------------------------|
	D|-----------------------------------------|
	A|--3--------------------------------------|
	D|-----5--4--3--0--6h7\---0--7--6--5--0--3~|


  	  "Fool, you love yourself and no one else"
	e|-------------------------------------------------------|
	B|-------------------------------------------------------|
	G|--5----------------------------------------------------|
	D|------------------------8--8--8\7--7-------------------|
	A|--3---------------------8--8--8\7--7-------------------|
	D|-----5--4--3--0--6h7\---8--8--8\7--7--0--7--6--5--0--3~|


	  "The bitter root of self"
	e|---------------------------------|
	B|---------------------------------|
	G|---------------------------------|
	D|--8--8--8\7--7-------------------|
	A|---------------------------------|
	D|--8--8--8\7--7--0--7--6--5--0--3~|


Pre-Chorus

	  "Come on baby, no time for maybes,   one last trip  to  hell"
	e|---------------------------------------------------------------|
	B|---------------------------------------------------------------|
	G|--12-12-12-12\-11-11-11-11\-8-8-8-8/-15-15-15/17-17-17~--------|
	D|---------------------------------------------------------------|
	A|--10-10-10-10\-9--9--9--9\--6-6-6-6/-13-13-13/15-15-15~--------|
	D|---------------------------------------------------------------|


Chorus

	 "Come on, come on, come on, can you feel it"    (x3)
	e|------------------------------------------------|
	B|------------------------------------------------|
	G|-----------------9b10r9--\5---------------------|
	D|------------------------------------------------|
	A|-----------------7b-8r7--\3---------------------|
	D|--0--7--6--5--0--------------5--4--3--0--6h7\---|

	 "Glow                ...in you" (woo-hoo)
	 "Slow                ...in you" (woo-hoo)    (x2) "It's that  glow  in you"
	e|------------------------------------------------|-------------------------|
	B|------------------------------------------------|-------------------------|
	G|----------------12b13r12--\5--------------------|-------------------------|
	D|------------------------------------------------|-----8-8--8-8\7--7-------|
	A|----------------10b11r10--\3--------------------|-----8-8--8-8\7--7-------|
	D|--0--7--6--5--0---------------5--4--3--0--6h7\--|-----8-8--8-8\7--7-------|

				    ^ ^ ^ Synth/guitar follows the lead (not sure about this part)
                             e|------------------|
                     B|--------------------------|
                     G|-14b16r14-----------------|
                     D|---------12~--------------|
                     A|--------------------------|
                     D|--------------------------|


	Bass:
                               (x3)
	G|---------------------|
	D|---------------------|
	A|-----------------3h4-|
	D|--0--7--6--5--0------|

	Guitar 1:
			    (x1)
	e|-----------------|
	B|-----------------|
	G|-----------------|
	D|--8-8--8-8\7--7--|
	A|--8-8--8-8\7--7--|
	D|--8-8--8-8\7--7--|


Verse

	Bass:

	 "I'm  so  alone..
	 "I'm  so  alone,         i'm sinking"
	 "I'm  so  alone,         i can't get"  (x3)
	G|----------------------------------------|
	D|----------------------------------------|
	A|--------------------3~------------------|
	D|--0--7--6--5--0--3~-----5--4--3--0--6h7-|


	Guitar 1:

	 "..lost             in you"
	e|-------------------------| (x3)
	B|-------------------------|
	G|-------------------------|
	D|-------------------------|
	A|-------------------------|
	D|--0--7--6--5--0--3-------|

Pre-Chorus (repeat from above)

Chorus (repeat from above)


Bridge (Incomplete.  Not sure about this part)

	Guitar 1: (reverb?)

		  "Its not strange, that your the same from beat"
		  "Its not strange, that im so strange, oh please" (2x)
	e|------------------------------------------------------|
	B|------------------------------------------------------|
	G|-------2------------?????------------2------?????-----|
	D|----0----4----------?????-------------------?????-----|
	A|----------------3----------------2-------1------------|
	D|--0---------------------------------------------------|


Outro


	Bass:

	  "c'mon, c'mon, c'mon, can you feel it" (x2)
	G|---------------------------------------|
	D|---------------------------------------|
	A|---------------3h4-----------------3h4-|
	D|--0--7--6--5--0-------0--7--6--5--0----|

	Guitar 1:

	e|-------------|(x2)
	B|-------------|
	G|-------------|
	D|--8-8-8\7-7-\|
	A|--8-8-8\7-7-\|
	D|--8-8-8\7-7-\|


	(Synth Guitar ???)


	 "C'mon, c'mon, c'mon, can you feel it" (x4)
	e|-----------------------------------------|
	B|-----------------------------------------|
	G|-----------------------------------------|
	D|----------------5/6------------------5/6-|
	A|----------------3/4------------------3/4-|
	D|--0--7--6--5--0-------0--7--6--5--0------|


 	"Come on, come on, come on, can you feel it" (x3)
	e|------------------------------------------------|
	B|------------------------------------------------|
	G|----------------9b10r9--\5----------------------|
	D|------------------------------------------------|
	A|----------------7b-8r7--\3----------------------|
	D|--0--7--6--5--0--------------5--4--3--0--6h7\---|


	 "Glooooowwwwwww" (harmonizer)

	e|----------------------------|
	B|----------------------------|
	G|--12b14---------------------|
	D|----------------------------|
	A|----------------------------|
	D|----------------------------|

	End on

	e|-------------------------------------------------|
	B|-------------------------------------------------|
	G|----------------9b10r9--\5-----------------------|
	D|-----------------------------------------6h7\---0|
	A|----------------7b-8r7--\3---------------6h7\---0|
	D|--0--7--6--5--0--------------5--4--3--0--6h7\---0|





Comments


Popular Smashing Pumpkins tabs & chords
Czarina 3 Bass Tabs
East Chords
Whir Chords
Farewell And Goodnight 1 Tabs
Fucky Fucky Tabs
Go Tabs
Snap 1 Tabs
Song For A Son 1 Tabs
Where Boys Fear To Tread 1 Tabs
Mayonaise Ukulele


Song lyrics



↑ Back to top | Tablatures and chords are parodies/interpretations of the original songs. You may use it for private study, scholarship, research or language learning purposes only
© 2014 AZChords.com Contact us | Privacy policy | DMCA | Add/correct tabs | Request tabs | Top 50 tabs