» » »

Glow Bass tabs (ver.1)

Artists:  A B C D E F G H I J K L M N O P Q R S T U V W X Y Z # 

Glow Bass tabs (ver.1)

Smashing Pumpkins
Rating:
0/5 (0 votes)
Tabs too difficult? Try these video lessons and learn fast.
                *I'm really sick of seeing wrong tabs for this song. Here is the CORRECT tabs. 

here the video, play along! 


*intro
G|--------------|-----------------------------|
D|--------------|-----------------------------|
A|--------------|------------3----------------|
E|-0-7-6-5-0-3~-|-0-7-6-5-0-3---5-4-3-0-6-7---|


*1st verse..I'm so alone... 
G|-----------------------------|
D|-----------------------------|
A|------------3----------------|
E|-0-7-6-5-0-3---5-4-3-0-6-7---| x3

G|-------------|
D|-------------|
A|-------------|
E|-0-7-6-5-0-3-|x1

G|-----------------------------|
D|-----------------------------|
A|------------3----------------|
E|-0-7-6-5-0-3---5-4-3-0-6-7---| x2


G|-------------|
D|-------------|
A|-------------|
E|-0-7-6-5-0-3-|x3


*fool you love yourself 

G|------------------------------------------------------|
D|------------------------------------------------------|
A|-3---------------------------3------------------------|
E|---5-4-3-0-6-7---0-7-6-5-0-3---5-4-3-0-6-7--7-7-7-6-6-|

G|----------------------------|
D|----------------------------|
A|----------------------------|
E|---0-7-6-5-0-3--7-7-7-6-6---|

G|----------------------------|
D|----------------------------|
A|----------------------------|
E|---0-7-6-5-0-3--------------|

G|--------|
D|--------|
A|--3-----|
E|--------|x5

*chorus

G|-----------------------------|
D|-----------------------------|
A|------------3----------------|
E|-0-7-6-5-0-3---5-4-3-0-6-7---|x5

G|---------------|
D|---------------|
A|---------------|
E|--7-7-7-7-6-6--|x1

*2nd verse

G|----------------------------|
D|----------------------------|
A|---------------3-5----------|
E|---0-7-6-5-0-3--------------|x3

G|---------------|
D|---------------|
A|---------------|
E|--7-7-7-7-6-6--|x1


G|-----------------------------|
D|-----------------------------|
A|------------3----------------|
E|-0-7-6-5-0-3---5-4-3-0-6-7---| x3

G|-------------|
D|-------------|
A|-------------|
E|-0-7-6-5-0-3-|x3

*^fool you love yourself 

*chorus

*this is the part with the bunnies in the video, i can't figure out the whole thing though. 



G|------------------------------------------------------|
D|------------------------------------------------------|
A|---5---5---5-----3------------------------------------|
E|-0---0---0---------4h5p4------------------------------|

*break

G|----------------------------|
D|----------------------------|
A|---------------3-5----------|
E|---0-7-6-5-0-3--------------|x5


G|---------------|
D|---------------|
A|---------------|
E|--7-7-7-7-6-6--|x1

*come on, come on, come on... 

G|----------------------------|
D|----------------------------|
A|---------------3-5----------|
E|---0-7-6-5-0-3--------------|x2

G|---------------|
D|---------------|
A|---------------|
E|--7-7-7-7-6-6--|x1

G|----------------------------|
D|----------------------------|
A|---------------3-5----------|
E|---0-7-6-5-0-3--------------|x8

*chorus. 

stop..come on, come on can you feel iit glow?

play chorus part again.

and you done. End on open D. 


enjoy! 
            
Tabs too difficult? Try these video lessons and learn fast.


comments powered by Disqus
↑ Back to top | Tablatures and chords are parodies/interpretations of the original songs. You may use it for private study, scholarship, research or language learning purposes only