>
 >
Frail And Bedazzled 2

Frail And Bedazzled 2 Bass Tabs

Smashing Pumpkins - Frail And Bedazzled 2 chords, tabs, tablatures, lyrics

Guitar lessons | Add/correct | Request | Top 50 tabs Artists:  A B C D E F G H I J K L M N O P Q R S T U V W X Y Z 0-9

Frail And Bedazzled 2 Bass Tabs – Smashing Pumpkins

CD, Sheet music, Poster

Do you like Frail And Bedazzled 2? Share with your friends now
Bass TabsBass Tabs v2TabsTabs v2
================================================================================
                       S M A S H I N G   P U M P K I N S

                                       -

                     F R A I L   A N D   B E D A Z Z L E D
================================================================================


                                PISCES ISCARIOT
                           (c) Virgin Records (1994)


                                 Drop D Tuning
                                    D A  D G

         Note that the tuning is actually 25 cents higher than stated.

                                 Tempo = 114 BPM
                               Time Signature = 4/4



                          -----------------------------

                                 PADDY MCMULLAN

                                   Version 1.0
                               16th November 2010
                             -----------------------

                             Tablature Symbols Used:


 p         -  Pull-Off
 h         -  Hammer-On
 (/)       -  Legato Slide (Blank space indicates length of slide)
 \         -  Slide Down to/Down From (Blank space indicates length of slide)
 /         -  Slide Up To/Up From (Blank space indicates length of slide)
 ( )       -  Ghost Note/Tied Note/Implied Note
 REST      -  Rest and sustain rest for duration of blank space



================================================================================
Part 1:                                                   [ Time 00:00 - 00:26 ]
================================================================================


Rest for 3 bars


||--R--    --------------||
||--E--    --------------||
||--S--    ----5-----5---||
||--T--    --7-----7-----||


||--------------------------------|-----------------------------| |
||--------------------------------|-----------------------------|*|
||--------------------------------|-------------------5-----5---|*| x 4
||--7--7-7-0-5-5-7--7-7-7-0-5-5-5-|--7--7-7-0-5-5-5-7-----7-----| |



================================================================================
Part 2:                                                   [ Time 00:26 - 00:44 ]
================================================================================


                               |_________________________[1,2,3]
||-----------------------------|-----------------------------| |
||-----------------------------|-----------------------------|*|
||---------5------------5--5-5-|---------5------------5--5-5-|*| x 4
||--7--7-7-----7--7-7-7--------|--7--7-7-----7--7-7-7--------| |

|_____________________________[4]
|------------------------------||
|------------------------------||
|---------5--5-5---5--5--5-5-5-||
|--7--7-7--------7-------------||



================================================================================
Part 3:                                                   [ Time 00:44 - 01:10 ]
================================================================================


Repeat Part 1 twice, rest for one and a half bars then repeat for a further
three times, replacing the final bar with the following:


|-------------------------------||
|-------------------------------||
|-------------------5--5--5-5-5-||
|--7--7-7-0-5-5-5-7-------------||



================================================================================
Part 4:                                                   [ Time 01:10 - 01:27 ]
================================================================================


||----------------------------|----------------------------------|
||----------------------------|----------------------------------|
||--5----5----5----5----5--5--|--(5\4)-0-0-0--0-0-0-0--0-0-0-0-0-|
||-----7----7----7----7-------|----------------------------------|


|----------------------------|----------------------------------| |
|----------------------------|----------------------------------|*|
|----5----5----5----5--5--5--|--(5\4)-0-0-0--0-0-0-0--0-0-0-0-0-|*| x 2
|--7----7----7----7----------|----------------------------------| |



================================================================================
Part 5:                                                   [ Time 01:27 - 01:44 ]
================================================================================


||----------------------------|----------------------------------| |
||----------------------------|----------------------------------|*|
||----------------------------|----------------------------------|*| x 4
||--0-5--0-5--0-5--0-5--5--5--|--(5\4)-0-0-0--0-0-0-0--0-0-0-0-0-| |



================================================================================
Part 6:                                                   [ Time 01:44 - 02:09 ]
================================================================================


                              |__________________________[1-5]
||----------------------------|----------------------------| |
||----------------------------|----------------------------|*|
||--------5-------------------|--------5-------------------|*| x 6
||--0---0------0-5--5-5-5-4-4-|--0---0------0-5--5-5-5-4-4-| |


|________________________[6]
|-------------------------||
|-------------------------||
|--------5----------------||
|--0---0------0-5---0-6---||



================================================================================
Rest for 7 bars before continuing                         [ Time 02:29 - 02:28 ]
================================================================================

================================================================================
Repeat Part 2 eight times then play the following:        [ Time 02:28 - 02:54 ]
================================================================================


|----------------------------||
|----------------------------||
|----------------------------||
|--5--0-5--0-5--0-5--0-5--6--||



================================================================================
Outro:                                                    [ Time 02:54 - 03:17 ]
================================================================================


||--------------------------------|-----------------------------| |
||--------------------------------|-----------------------------|*|
||--------------------------------|-------------------5-----5---|*| x 3
||--7--7-7-0-5-5-7--7-7-7-0-5-5-5-|--7--7-7-0-5-5-5-7-----7-----| |


|--------------------------------|-----------------------------|
|--------------------------------|-----------------------------|
|--------------------------------|-------------------5-----4---|
|--7--7-7-0-5-5-7--7-7-7-0-5-5-5-|--7--7-7-0-5-5-5-0-----0-----|

                
|-----------------------||
|-----------------------||
|-----------------------||
|--0-5--     \    -0----||



================================================================================
End
================================================================================


Tab summary:        Part 1 x 6
                    Part 2 x 2
                    Part 3 x 1
                    Part 4 x 1
                    Part 5 x 4
                    Part 6 x 4
                    Part 2 x 8
                    Outro x 1

                    END





Comments


Popular Smashing Pumpkins tabs & chords
1979 2 Bass Tabs
Aeroplane Flies High Chords
Landslide 1 Chords
Mayonaise 3 Chords
Peace Love Chords
Blew Away 1 Tabs
Spangled 1 Tabs
Stand Inside Your Love Tabs
You're All I've Got Tonight 1 Tabs
Daydream Ukulele


Song lyrics



↑ Back to top | Tablatures and chords are parodies/interpretations of the original songs. You may use it for private study, scholarship, research or language learning purposes only
© 2014 AZChords.com Contact us | Privacy policy | DMCA | Add/correct tabs | Request tabs | Top 50 tabs