>
 >
Fol

Fol Bass Tabs

Smashing Pumpkins - Fol chords, tabs, tablatures, lyrics

Guitar lessons | Add/correct | Request | Top 50 tabs Artists:  A B C D E F G H I J K L M N O P Q R S T U V W X Y Z 0-9

Fol Bass Tabs – Smashing Pumpkins

CD, Sheet music, Poster

Do you like Fol? Share with your friends now
Bass TabsTabsTabs v2
================================================================================
                       S M A S H I N G   P U M P K I N S

                                       -

                                     F O L

                         ( F E E L   O U R   L O V E )
================================================================================


                                INTERNET RELEASE
                               (c) Hyundai (2009)


                         Tune down one and a half steps.
                                    C# F# B E

                                 Tempo = 146 BPM
                               Time Signature = 4/4



                          -----------------------------

                                 PADDY MCMULLAN

                                   Version 1.0
                                 28th March 2012
                             -----------------------

                             Tablature Symbols Used:


 (/)       -  Legato Slide (Blank space indicates length of slide)
 \         -  Slide Down to/Down From (Blank space indicates length of slide)
 /         -  Slide Up To/Up From (Blank space indicates length of slide)
 ( )       -  Ghost Note/Tied Note/Implied Note
 REST      -  Rest and sustain rest for duration of blank space



================================================================================
Verse 1:                                                  [ Time 00:00 - 00:19 ]
================================================================================


||--------------------------|--------------------------|
||--------------------------|--------------------------|
||--------------------------|--------------------------|
||--0--0--0--0--0--8--8--8--|--0--0--0--0--0--8--8--8--|


|---------------------------|----------------------------------|
|---------------------------|----------------------------------|
|---------------------------|----------------------------------|
|--0--0--0--0--0--8--8--10--|--12--12--12--12--12--10--10--10--|


|--------------------------|--------------------------|
|--------------------------|--------------------------|
|--------------------------|--------------------------|
|--0--0--0--0--0--8--8--8--|--0--0--0--0--0--8--8--8--|


|--------------------------|--------------------------|
|--------------------------|--------------------------|
|--------------------------|--------------------------|
|--0--0--0--0--0--8--8--0--|--5--5--5--0--3--3--3--0--|


|--------------------------|--------------------------|
|--------------------------|--------------------------|
|--------------------------|--------------------------|
|--8--8--8--0--0--0--0--0--|--5--5--5--0--3--3--3--0--|



|--------------------------| |--------------| |
|--------------------------|2|--------------|4|
|--------------------------|/|--------------|/|
|--8--8--8--0--0--0--0--0--|4|--5----5-- /--|4|



================================================================================
Pre-chorus 1:                                             [ Time 00:19 - 00:36 ]
================================================================================


||--------------------------|--------------------------|
||--------------------------|--------------------------|
||--------------------------|--------------------------|
||--0--0--0--0--0--8--8--8--|--0--0--0--0--0--8--8--8--|


|---------------------------|------------------|--------------------------|
|---------------------------|------------------|--------------------------|
|---------------------------|------------------|--------------------------|
|--0--0--0--0--0--8--8--8-8-|--10--10--10--10--|--0--0--0--0--0--8--8--8--|


|--------------------------|--------------------------|------------------|
|--------------------------|--------------------------|------------------|
|--------------------------|--------------------------|------------------|
|--0--0--0--0--0--8--8--8--|--0--0--0--0--0--8--8--8--|--10--10--10--L\--|


|-----------------------------|-----------------------------|
|-----------------------------|-----------------------------|
|-----------------------------|-----------------------------|
|-----0--0--0-----10--10--10--|-----0--0--0-----10--10--10--|


|----------------------------| |--------------| |
|----------------------------|2|--------------|4|
|----------------------------|/|--------------|/|
|-----0--0--0-----10--10--0--|4|--8--8--8--0--|4|



================================================================================
Chorus 1:                                                 [ Time 00:36 - 01:09 ]
================================================================================


||---------------------------|---------------------------|
||---------------------------|---------------------------|
||---------------------------|---------------------------|
||--8------8--(8/10)--12--0--|--(0)--0--0--0--0----0--0--|


|-----------------------|------------------------------|-----------------------|
|-----------------------|------------------------------|-----------------------|
|--5-----5--5--7--7-----|------------------------------|-----------------------|
|--------------------5--|--(5)----5--5--5-- /--10-- \--|--0----0--0--0--0--10--|


|-----------------------------------|-----------------------|
|-----------------------------------|-----------------------|
|-----------------------------------|-----------------------|
|--(10)--10--10--10--10--10\ -0--0--|--5------5--5----5--5--|


|--------------------------|----------------------------------|
|--------------------------|----------------------------------|
|--------------------------|----------------------------------|
|--(5)--3----5----3----5 /-|--12--12--12--12--12--12--12--10--|


|-----------------------------------|-----------------------|
|-----------------------------------|-----------------------|
|-----------------------------------|-----------------------|
|--(10)--10--10--10--10--10\ -0--0--|--5----5--5--5----3----|


|--------------------------|----------------------------|
|--------------------------|----------------------------|
|--0------0--0-- /4--4--5--|--(5)--5----5--(5/8)--7--7--|
|--------------------------|----------------------------|


|--------------------------|----------------------------|
|--------------------------|----------------------------|
|--0------0--0--0-- /4--5--|--(5)--5----5--5--(5/8)--7--|
|--------------------------|----------------------------|


|--------------------------|------------------------------|
|--------------------------|------------------------------|
|--0------0--0-- /4--4--5--|--(5)----5--4--(5/8)-- \7--7--|
|--------------------------|------------------------------|


|------------------------|------------------------|------------------------|
|------------------------|------------------------|------------------------|
|--5--5----5--5--5----5--|--5--5----5--5--5----5--|--5--5----5--5--5----5--|
|------------------------|------------------------|------------------------|


|-------------------------||
|-------------------------||
|--5--5----5--5--5---- \--||
|-------------------------||



================================================================================
Verse 2:                                                  [ Time 01:09 - 01:31 ]
================================================================================


Rest for 7 bars


||--------------------------|--------------------------|
||--------------------------|--------------------------|
||--------------------------|--------------------------|
||--5--5--5--0--3--3--3--0--|--8--8--8--0--0--0--0--0--|


|--------------------------|--------------------------|
|--------------------------|--------------------------|
|--------------------------|--------------------------|
|--5--5--5--0--3--3--3--0--|--8--8--8--0--0--0--0--0--|


|--------------------------|--------------------------| |--------------| |
|--------------------------|--------------------------|2|--------------|4|
|--------------------------|--------------------------|/|--------------|/|
|--5--5--5--0--3--3--3--0--|--8--8--8--0--0--0--0--0--|4|--5----5-- /--|4|



================================================================================
Pre-chorus 2:                                             [ Time 01:31 - 01:48 ]
================================================================================


||--------------------------|--------------------------|
||--------------------------|--------------------------|
||--------------------------|--------------------------|
||--0--0--0--0--0--8--8--8--|--0--0--0--0--0--8--8--8--|


|---------------------------| |------------------| |--------------------------|
|---------------------------|2|------------------|4|--------------------------|
|---------------------------|/|------------------|/|--------------------------|
|--0--0--0--0--0--8--8--8-8-|4|--10--10--10--10--|4|--0--0--0--0--0--8--8--8--|


|--------------------------|---------------------------| |------------------| |
|--------------------------|---------------------------|2|------------------|4|
|--------------------------|---------------------------|/|------------------|/|
|--0--0--0--0--0--8--8--8--|--0--0--0--0--0--8--8--8-8-|4|--10--10--10--10--|4|


|--------------------------|--------------------------|
|--------------------------|--------------------------|
|--------------------------|--------------------------|
|--0--0--0--0--0--8--8--8--|--0--0--0--0--0--8--8--8--|


|---------------------------| |------------------| |
|---------------------------|2|------------------|4|
|---------------------------|/|------------------|/|
|--0--0--0--0--0--8--8--8-8-|4|--10--10--10--10--|4|



================================================================================
Chorus 2:                                                 [ Time 01:48 - 02:27 ]
================================================================================


||---------------------------|---------------------------|
||---------------------------|---------------------------|
||---------------------------|---------------------------|
||--8------8--(8/10)--12--0--|--(0)--0--0--0--0----0--0--|



|----------------------|------------------------------|------------------------|
|----------------------|------------------------------|------------------------|
|--5----5--5--7--7-----|------------------------------|------------------------|
|-------------------5--|--(5)----5--5--5-- /--10-- \--|--0-----0--0--0--0--10--|


|---------------------------------|--------------------------------------|
|---------------------------------|--------------------------------------|
|---------------------------------|--12----12----12----12----12----12----|
|--(10)--10----10--10--10\ -0--0--|--------------------------------------|



|--------------------------------------|-------------------------|
|--------------------------------------|-------------------------|
|--12----12----12----10----10----10----|-------------------------|
|--------------------------------------|--0------0--0--0--0--10--|


|-----------------------------------|------------------------|
|-----------------------------------|------------------------|
|-----------------------------------|------------------------|
|--(10)--10--10--10--10--10\ -0--0--|--5------5--5--5--5--5--|


|------------------------|---------------------------|-------------------------|
|------------------------|---------------------------|-------------------------|
|------------------------|---------------------------|-------------------------|
|-(5)--3----5----3----5/ |--0--0--0--0--0--0--0--10--|-(10)---10--10\ ---0--0--|


|---------------------|------------------------|-----------------------------|
|---------------------|------------------------|-----------------------------|
|---------------------|--0----0--0-- /4--4--5--|-(5)--5--5--(4/5)--(5/8)--7--|
|--5----5--5--5--3----|------------------------|-----------------------------|


|--------------------------|-----------------------------|
|--------------------------|-----------------------------|
|--0------0--0--0-- /4--5--|--(5)--5----(4/5)--(5/8)--7--|
|--------------------------|-----------------------------|


|------------------------|-----------------------------|-----------------------|
|------------------------|-----------------------------|-----------------------|
|--0----0--0-- /4--4--5--|-(5)----5--4--(5/8)-- \7--7--|--5--5----5----5----5--|
|------------------------|-----------------------------|-----------------------|


|-----------------------|-----------------------|------------------------||
|-----------------------|-----------------------|------------------------||
|--5--5----5----5----5--|--5--5----5----5----5--|--5--5----5----5\ ---0--||
|-----------------------|-----------------------|------------------------||



================================================================================
Outro:               Tempo Gradually Increases to 152 BPM [ Time 02:27 - 03:04 ]
================================================================================


||--R-----------R-----------|--R-----------R-----------|
||--E-----------E-----------|--E-----------E-----------|
||--S-----------S-----------|--S-----------S-----------|
||--T--0--0--0--T--8--8--8--|--T--0--0--0--T--8--8--8--|


|--R-----------R------------| |------------------| |
|--E-----------E------------|2|------------------|4|
|--S-----------S------------|/|------------------|/| x 4
|--T--0--0--0--T--8--8--8 / |4|--10--10--10-- \--|4|


||--------------R-----------|--------------R-----------|
||--------------E-----------|--------------E-----------|
||--------------S-----------|--------------S-----------|
||--0--0--0--0--T--8--8--8--|--0--0--0--0--T--8--8--8--|


|--------------R------------| |------------------||
|--------------E------------|2|------------------||
|--------------S------------|/|------------------||
|--0--0--0--0--T--8--8--8 / |4|--10--10--10-- \--||



================================================================================
End
================================================================================


Tab summary:        Verse 1
                    Pre-chorus 1
                    Chorus 1
                    Verse 2
                    Pre-chorus 2
                    Chorus 2
                    Outro

                    END





Comments


Popular Smashing Pumpkins tabs & chords
Clones 3 Bass Tabs
Geek Usa Bass Tabs
Never Let Me Down Again Chords
Daphne Descends Live Tabs
Glynis Tabs
Mellon Collie And The Infinite Sadness Tabs
The Everlasting Gaze 2 Tabs
Tribute To Johnny Tabs
Glass And The Ghost Children Ukulele
Innosense Ukulele


Song lyrics



↑ Back to top | Tablatures and chords are parodies/interpretations of the original songs. You may use it for private study, scholarship, research or language learning purposes only
© 2014 AZChords.com Contact us | Privacy policy | DMCA | Add/correct tabs | Request tabs | Top 50 tabs