>
 >
Fol 1

Fol 1 Guitar Tabs

Smashing Pumpkins - Fol 1 chords, tabs, tablatures, lyrics

Guitar lessons | Add/correct | Request | Top 50 tabs Artists:  A B C D E F G H I J K L M N O P Q R S T U V W X Y Z 0-9

Fol 1 Guitar Tabs – Smashing Pumpkins

CD, Sheet music, Poster

Do you like Fol 1? Share with your friends now
Bass TabsTabsTabs v2
================================================================================
                       S M A S H I N G   P U M P K I N S

                                       -

                                     F O L

                         ( F E E L   O U R   L O V E )
================================================================================


                                INTERNET RELEASE
                               (c) Hyundai (2009)


                         Tune down one and a half steps.
                                 C# F# B E G# C#

                                 Tempo = 146 BPM
                               Time Signature = 4/4



                          -----------------------------

                                 PADDY MCMULLAN

                                   Version 1.0
                                 28th March 2012
                             -----------------------

                             Tablature Symbols Used:


 p         -  Pull-Off
 h         -  Hammer-On
 ~~        -  Vibrato
 (/)       -  Legato Slide (Blank space indicates length of slide)
 \         -  Slide Down to/Down From (Blank space indicates length of slide)
 /         -  Slide Up To/Up From (Blank space indicates length of slide)
 ( )       -  Ghost Note/Tied Note/Implied Note
 REST      -  Rest and sustain rest for duration of blank space
 P.M...    -  Palm-muting



================================================================================
Verse 1: Guitars 1 & 2 w/ Distortion                      [ Time 00:00 - 00:19 ]
================================================================================


* Note: the harmonics on the D-string are most likely accidental and will
  probably be struck whether you intend to or not, but they're consistently
  played throughout the riffs in this section and are therefore worth including.


||-------------------------------------|
||-------------------------------------|
||-------------------------------------|
||--------------<12>-<12>--------------|
||--14--14--14 \ 12---12 \ 10--10--10--|
||--0---0---0----0----0----8---8---8---|
    ................................


|-------------------------------------|
|-------------------------------------|
|-------------------------------------|
|--------------<12>-<12>--------------|
|-/14--14--14 \ 12---12 \ 10--10--10--|
|--0---0---0----0----0----8---8---8---|
   ................................


|_____________________________________
|-------------------------------------|
|-------------------------------------|
|-------------------------------------|
|--------------<12>-<12>--------------|
|-/14--14--14 \ 12---12 \ 10--10--12--|
|--0---0---0----0----0----8---8---0---|
   ................................


 ___________________________________[1]
|-----------------------------------| |
|-----------------------------------| |
|-----------------------------------|*|
|-----------------------------------|*| x 2
|--/14--14--14--14--14--12--12--12--| |
|---0---0---0---0---0---10--10--10--| |
    ..............................


|___________________________________[2]
|------------------------------------||
|------------------------------------||
|------------------------------------||
|--------------<12>-<12>----------0--||
|-/14--14--14 \ 12---12 \ 10--10--0--||
|--0---0---0----0----0----8---8---0--||
   ...................


|--------------------------|----------------------------|
|--------------------------|----------------------------|
|--------------------------|----------------------------|
|--------------------------|----------------------------|
|--------------------------|----------------------------|
|--5--5--5--0--3--3--3--0--|-- /8--8--8--0--0--0--0--0--|


|--------------------------|---------------------------| |--------------| |
|--------------------------|---------------------------| |--------------| |
|--------------------------|---------------------------|2|--------------|4|
|--------------------------|---------------------------|/|--------------|/|
|--------------------------|---------------------------|4|--7----7-- /--|4|
|--5--5--5--0--3--3--3--0--|-- /8--8--8--0--0--0--0----| |--5----5-- /--| |



================================================================================
Pre-chorus 1:                                             [ Time 00:19 - 00:36 ]
================================================================================


||-------------------------------------| |
||-------------------------------------| |
||-------------------------------------|*|
||--------------<12>-<12>--------------|*| x 3
||--14--14--14 \ 12---12 \ 10--10--10--| |
||--0---0---0----0----0----8---8---8---| |


| |----------------| |
| |----------------| |
|2|----------------|4|
|/|----------------|/|
|4|--12--12--12----|4|
| |--10--10--10----| |


||-------------------------------------| |
||-------------------------------------| |
||-------------------------------------|*|
||--------------<12>-<12>--------------|*| x 3
||--14--14--14 \ 12---12 \ 10--10--10--| |
||--0---0---0----0----0----8---8---8---| |


| |----------------| |
| |----------------| |
|2|----------------|4|
|/|----------------|/|
|4|--12--12--12- \-|4|
| |--10--10--10- \-| |



||-----------------------------|-----------------------------|
||--R-----------R--------------|--R-----------R--------------|
||--E-----------E--------------|--E-----------E--------------|
||--S-----------S--------------|--S-----------S--------------|
||--T-----------T--------------|--T-----------T--------------|
||-----0--0--0-----10--10--10--|-----0--0--0-----10--10--10--|


|----------------------------|------------------||
|--R-----------R-------------|------------------||
|--E-----------E-------------|------------------||
|--S-----------S-------------|------------------||
|--T-----------T-------------|--10--10--10--10--||
|-----0--0--0-----10--10--0--|--8---8---8---0---||



================================================================================
Chorus 1:                                                 [ Time 00:36 - 01:09 ]
================================================================================


||--------------------------|-----------0----------|------------------------|
||--0---------0---------0---|--(0)------0-----0----|------------0--------0--|
||--0---------0---------0---|--(0)------0-----0----|------------0--------0--|
||--10--------10--------9---|--(9)------9-----9----|--12--------12-------7--|
||--10--------10----10--10--|--(10)-----10----10---|--12--------12-------7--|
||--8---------8-----0---0---|--(0)------0-----0----|--10--------10----0--5--|


|-------------------------|------------------------0---|
|--(0)--------------------|------------------------0---|
|--(0)--------------------|--13--------13--13--13--13--|
|--(7)--------------------|--x---------x---x---0---0---|
|--(7)-------5/ ---10/ ---|--11--------11--11--0---0---|
|--(5)----0--5/ ---10/ ---|--0---------0---0---0---10--|


|--(0)-----0---0---0---------|-----------------------|
|--(0)-----0---0---0---------|-----------------------|
|--(13)----13--13--13--------|--9------9--9----9 /11-|
|--(0)-----0---0---0---------|--7------7--7----7 /9--|
|--(0)-----0---0---0------0--|--0------0--0----0--0--|
|--(10)----10--10--10--10----|-----------------------|


|---------------------------|----------------------------0---|
|---------------------------|----------------------------0---|
|-(11)-9----11 / 14--14\ ---|--13--13--13--13--13----13--13--|
|-(9)--9----9  / 12--12\ 0--|--x---x---x---x---x-----0---0---|
|-(0)--0----0----0---0---0--|--11--11--11--11--11----0---0---|
|------------------------0--|--12--12--12--12--12----0---10--|


|-(0)---0----------------------|-------------------------|
|-(0)---0-------------0--0-----|-------------------------|
|-(13)--13----13--13--0--0-----|--9~~--------------------|
|-(0)---------0---0---0--0--0--|--7~~--------------------|
|-(0)---------0---0---------0--|--0---------------10\ ---|
|-(10)----------------------0--|------------7/ ---10\ ---|


|-------------------------|-------------------------------|
|-------------0-----------|-------------------------------|
|-------------x--------10-|--(10)-10----10--10--11--14~~--|
|--11~~-------11--12---0--|--(0)--0-----0---0---0---0-----|
|--0----------0---0----0--|--(0)--0-----0---0-------------|
|-------------------------|-------------------------------|


|--------------------------|------------------------------|
|--------------------------|------------------------------|
|-----------------------10-|--(10)-10----10--10--11--14~~-|
|--11~~-------11--12----0--|--(0)--0-----0---0---0---0----|
|--0----------0---0-----0--|--(0)--0-----0---0------------|
|--------------------------|------------------------------|


|---------------------------|--------------------------------|
|---------------------------|--------------------------------|
|-----------------------10--|--(10)-10----10--10--11-- /14---|
|--11~~-------11--12-----0--|--(0)--0-----0---0---0-----0----|
|--0----------0---0------0--|--(0)--0-----0---0--------------|
|---------------------------|--------------------------------|


|------------------------------|-------------------|-------------------|
|--15~~---------15--------15~~-|--(15)-------------|--(15)-------------|
|--14-----14----14----14-------|--(14)-------------|--(14)-------------|
|--0---------------------------|--(0)--------------|--(0)--------------|
|------------------------------|-------------------|-------------------|
|------------------------------|-------------------|-------------------|


|-------------------||
|--(15)-------------||
|--(14)-------------||
|--(0)--------------||
|-------------------||
|-------------------||



================================================================================
Verse 2:                                                  [ Time 01:09 - 01:31 ]
================================================================================


||-----------------------------|-----------------------------|
||--R-----------R--------------|--R-----------R--------------|
||--E-----------E--------------|--E-----------E--------------|
||--S-----------S--------------|--S-----------S--------------|
||--T-----------T--------------|--T-----------T--------------|
||-----0--0--0-----10--10--10--|-----0--0--0-----10--10--10--|


|-----------------------------|--------------------------|
|--R-----------R--------------|--R-----------R-----------|
|--E-----------E--------------|--E-----------E-----------|
|--S-----------S--------------|--S-----------S-----------|
|--T-----------T--------------|--T-----------T-----------|
|-----0--0--0-----10--10--10--|-----0--0--0-----8--8--8--|


|-----------------------------|-----------------------------|
|--R-----------R--------------|--R-----------R--------------|
|--E-----------E--------------|--E-----------E--------------|
|--S-----------S--------------|--S-----------S--------------|
|--T-----------T--------------|--T-----------T--------------|
|-----0--0--0-----10--10--10--|-----0--0--0-----10--10--10--|


|----------------------------|--------------------------|
|--R-----------R-------------|--------------------------|
|--E-----------E-------------|--------------------------|
|--S-----------S-------------|--------------------------|
|--T-----------T-------------|--------------------------|
|-----0--0--0-----10--10--0--|--5--5--5--0--3--3--3--0--|


|----------------------------|--------------------------|
|----------------------------|--------------------------|
|----------------------------|--------------------------|
|----------------------------|--------------------------|
|----------------------------|--------------------------|
|-- /8--8--8--0--0--0--0--0--|--5--5--5--0--3--3--3--0--|


|----------------------------|--------------------------|
|----------------------------|--------------------------|
|----------------------------|--------------------------|
|----------------------------|--------------------------|
|----------------------------|--------------------------|
|-- /8--8--8--0--0--0--0--0--|--5--5--5--0--3--3--3--0--|


|---------------------------| |--------------| |
|---------------------------| |--------------| |
|---------------------------|2|--------------|4|
|---------------------------|/|--------------|/|
|---------------------------|4|--7----7-- /--|4|
|-- /8--8--8--0--0--0--0----| |--5----5-- /--| |



================================================================================
Pre-chorus 2:                                             [ Time 01:31 - 01:48 ]
================================================================================


||-------------------------------------| |
||-------------------------------------| |
||-------------------------------------|*|
||--------------<12>-<12>--------------|*| x 3
||--14--14--14 \ 12---12 \ 10--10--10--| |
||--0---0---0----0----0----8---8---8---| |


| |----------------| |
| |----------------| |
|2|----------------|4|
|/|----------------|/|
|4|--12--12--12----|4|
| |--10--10--10----| |


||-------------------------------------| |
||-------------------------------------| |
||-------------------------------------|*|
||--------------<12>-<12>--------------|*| x 3
||--14--14--14 \ 12---12 \ 10--10--10--| |
||--0---0---0----0----0----8---8---8---| |


| |------------------| |
| |------------------| |
|2|------------------|4|
|/|------------------|/|
|4|--12--12--12--10--|4|
| |--10--10--10--0---| |



================================================================================
Chorus 2:                                                 [ Time 01:48 - 02:27 ]
================================================================================



||--------------------------|-----------0----------|--0--------------------|
||--0---------0---------0---|--(0)------0-----0----|--0---------0-------0--|
||--0---------0---------0---|--(0)------0-----0----|--0---------0-------0--|
||--10--------10--------9---|--(9)------9-----9----|--12--------12------7--|
||--10--------10----10--10--|--(10)-----10----10---|--12--------12------7--|
||--8---------8-----0---0---|--(0)------0-----0----|--10--------10---0--5--|



|-------------------------|------------------------0---|
|--(0)--------------------|------------------------0---|
|--(0)--------------------|--13--------13--13--13--13--|
|--(7)--------------------|--x---------x---x---0---0---|
|--(7)-------5/ ---10\ ---|--11--------11--11--0---0---|
|--(5)----0--5/ ---10\ ---|--0---------0---0---0---10--|


                                    |____3____|    |__3_|
|--(0)----0---0---0---------|------------------------------|
|--(0)----0---0---0---------|------------------------------|
|--(13)---13--13--13--------|--9----9----9----9---------9--|
|--(0)----0---0---0---------|--7----7----7----7----7----9--|
|--(0)----0---0---0------0--|--0----0----0----0----0----0--|
|--(10)---10--10--10--10----|------------------------------|


   |_3_|    |____3____|
|----------------------------------|------------------------0---|
|----------------------------------|------------------------0---|
|-(9)--9----9----9----9--12---- \--|--13--------13--13--13--13--|
|-(9)--9----9----7----7--12---- \--|--x---------x---x---0---0---|
|-(0)--0----0----0----0------------|--11--------11--11--0---0---|
|----------------------------------|--0---------0---0---0---10--|


|--(0)---0---------------------|------------------------|
|--(0)---0------------0--0-----|------------------------|
|--(13)--13---13--13--0--0-----|--9------9--9----9 / 11-|
|--(0)--------0---0---0--0--0--|--7------7--7----7 / 9--|
|--(0)--------0---0---------0--|--0------0--0----0---0--|
|--(10)---------------------0--|------------------------|



|----------------------------|----------------------------0--|
|----------------------------|----------------------------0--|
|-(11)-9----11 / 14--14\ ----|--13--13--13--13--13----13--13-|
|-(9)--9----9  / 12--12\ -0--|--x---x---x---x---x-----0---0--|
|-(0)--0----0----0---0----0--|--11--11--11--11--11----0---0--|
|-------------------------0--|--12--12--12--12--12----0---10-|



|--(0)--0-----------------------|-------------------------|
|--(0)--0-------------0---0-----|-------------------------|
|--(13)-13----13--13--13--0-----|--9~~--------------------|
|--(0)--0-----0---0---0---0--0--|--7~~--------------------|
|--(0)--0-----0---0----------0--|--0---------------10\ ---|
|--(10)-10----10--10---------0--|------------7/ ---10\ ---|



|--------------------------|--------------------------------|
|-------------0------------|--------------------------------|
|-------------x---------10-|--(10)-10----10--10--11--14~~---|
|--11~~-------11--12----0--|--(0)--0-----0---0---0---0------|
|--0----------0---0-----0--|--(0)--0-----0---0--------------|
|--------------------------|--------------------------------|


|--------------------------|--------------------------------|
|-------------0------------|--------------------------------|
|-------------x---------10-|--(10)-10----10--10--11--14~~---|
|--11~~-------11--12----0--|--(0)--0-----0---0---0---0------|
|--0----------0---0-----0--|--(0)--0-----0---0--------------|
|--------------------------|--------------------------------|



|--------------------------|--------------------------------|
|-------------0------------|--------------------------------|
|-------------x---------10-|--(10)-10----10--10--11 /14~~---|
|--11~~-------11--12----0--|--(0)--0-----0---0---0---0------|
|--0----------0---0-----0--|--(0)--0-----0---0--------------|
|--------------------------|--------------------------------|



|--------------------------|-------------------|-------------------|
|--15~~-------15-----------|--(15)-------------|--(15)-------------|
|--14-----14---------------|--(14)-------------|--(14)-------------|
|--0-----------------------|--(0)--------------|--(0)--------------|
|--------------------------|-------------------|-------------------|
|--------------------------|-------------------|-------------------|


|-------------------||
|--(15)-------------||
|--(14)-------------||
|--(0)--------------||
|-------------------||
|-------------------||



================================================================================
Outro:               Tempo Gradually Increases to 152 BPM [ Time 02:27 - 03:04 ]
================================================================================


| |--------------------------|--------------------------|
| |--R-----------R-----------|--R-----------R-----------|
|4|--E-----------E-----------|--E-----------E-----------|
|/|--S-----------S-----------|--S-----------S-----------|
|4|--T-----------T-----------|--T-----------T-----------|
| |-----0--0--0-----8--8--8--|-----0--0--0-----8--8--8--|


|--------------------------| |------------------| |
|--R-----------R-----------| |------------------| |
|--E-----------E-----------|2|------------------|*|
|--S-----------S-----------|/|------------------|*| x 4
|--T-----------T--------0--|4|--12--12--12-- \--| |
|-----0--0--0-----8--8--0--| |--10--10--10-- \--| |


| |------------------------------|------------------------------|
| |--R------------R--------------|--R------------R--------------|
|4|--E------------E--------------|--E------------E--------------|
|/|--S------------S--------------|--S------------S--------------|
|4|--T--7--7--10--T--10--10--10--|--T--7--7--10--T--10--10--10--|
| |-----0--0--0------8---8---8---|-----0--0--0------8---8---8---|


|------------------------------| |------------------| |
|--R------------R--------------| |------------------| |
|--E------------E--------------|2|------------------|*|
|--S------------S--------------|/|------------------|*| x 2
|--T--7--7--10--T--10--10--10--|4|--12--12--12-- \--| |
|-----0--0--0------8---8---8---| |--10--10--10-- \--| |


| |--------------------------||
| |--R-----------R-----------||
|4|--E-----------E-----------||
|/|--S-----------S-----------||
|4|--T-----------T-----------||
| |-----0--0--0--------------||



================================================================================
End
================================================================================


Tab summary:        Verse 1
                    Pre-chorus 1
                    Chorus 1
                    Verse 2
                    Pre-chorus 2
                    Chorus 2
                    Outro

                    END





Comments


Popular Smashing Pumpkins tabs & chords
Blank Page Bass Tabs
Crestfallen 1 Bass Tabs
Real Love Bass Tabs
Shame 4 Bass Tabs
Sun 3 Bass Tabs
7 Shades Of Black Tabs
Clones Were All Tabs
Rhinoceros Tabs
The Rose March Tabs
Lily Ukulele


Song lyrics



↑ Back to top | Tablatures and chords are parodies/interpretations of the original songs. You may use it for private study, scholarship, research or language learning purposes only
© 2014 AZChords.com Contact us | Privacy policy | DMCA | Add/correct tabs | Request tabs | Top 50 tabs