>
 >
Eye

Eye Bass Tabs

Smashing Pumpkins - Eye chords, tabs, tablatures, lyrics

Guitar lessons | Add/correct | Request | Top 50 tabs Artists:  A B C D E F G H I J K L M N O P Q R S T U V W X Y Z 0-9

Eye Bass Tabs – Smashing Pumpkins

CD, Sheet music, Poster

Do you like Eye? Share with your friends now
Bass TabsChordsDrum TabsTabsTabs v2Tabs v3Ukulele
================================================================================
                       S M A S H I N G   P U M P K I N S

                                       -

                                     E Y E
================================================================================


                          LOST HIGHWAY OST/ROTTEN APPLES
                            (c) Virgin Records (1991)


                               Tune Down a 1/2 Step
                                  [5-string Bass]
                                  A# D# G# C# F#

                                  Tempo = 80 BPM
                               Time Signature = 4/4



                          -----------------------------

                                 PADDY MCMULLAN

                                   Version 1.0
                               23rd December 2010
                             -----------------------

                             Tablature Symbols Used:


 ( )       -  Ghost Note/Tied Note/Implied Note
 REST      -  Rest and sustain rest for duration of blank space


                                   -----------
                                   Song Notes:
                                   -----------

    There are two synth basses on the track, both of which are tabbed here.



================================================================================
Part 1: Bass 1                                      [ Time 00:00 - 01:01 ]
================================================================================


Rest for 8 bars


||---------------------|------------------------| |
||--7--7--R--        --|--5--5--R-  -------R-  -|*|
||--------E--        --|--------E-  -5--5--E-  -| | x 2
||--------S--        --|--------S-  -------S-  -|*|
||--------T--        --|--------T-  -------T-  -| |


|------------------------|------------------------| |
|--------R-  -------R-  -|--------R-  -------R-  -|*|
|--0--0--E-  -0--0--E-  -|--------E-  -5--5--E-  -| | x 4
|--------S-  -------S-  -|--3--3--S-  -------S-  -|*|
|--------T-  -------T-  -|--------T-  -------T-  -| |



================================================================================
Rest for 6 bars                                           [ Time 01:01 - 01:19 ]
================================================================================

================================================================================
Part 2: Basses 1 & 2                                [ Time 01:19 - 02:32 ]
================================================================================


-------
Bass 1:
-------


Repeat the last two bars of Part 1 twelve times


-------
Bass 2:
-------


||-------------------------------|----------------------------------| |
||--7--7--7-5-----7--7-5-7-5-7-5-|--5-5-5-5-7-5---------------------|*|
||------------0-0----------------|--------------5-5-5-5-5-5-7-5-5-5-| | x 4
||-------------------------------|----------------------------------|*|
||-------------------------------|----------------------------------| |


||-------------------------------|----------------------------------|
||--7--7--7-5-----7--7-5-7-5-7-5-|--5-5-5-5-7-5-----------------5-7-|
||------------0-0----------------|--------------5-5-5-5-5-5-7-5-----|
||-------------------------------|----------------------------------|
||-------------------------------|----------------------------------|


|-------------------------------|----------------------------------|
|--7--7--7-5-----7--7-5-7-5-7-5-|--5-5-5-5-7-5---------------------|
|------------0-0----------------|--------------5-5-5-5-5-5-7-5-3-0-|
|-------------------------------|----------------------------------|
|-------------------------------|----------------------------------|


|-------------------------------|----------------------------------|
|--7--7--7-5-----7--7-5-7-5-7-5-|--5-5-5-5-7-5-----------------5-7-|
|------------0-0----------------|--------------5-5-5-5-5-5-7-5-----|
|-------------------------------|----------------------------------|
|-------------------------------|----------------------------------|


|-------------------------------|----------------------------------||
|--7--7--7-5-----7--7-5-7-5-7-5-|--5-5-5-5-7-5-----------------5-7-||
|------------0-0----------------|--------------5-5-5-5-5-5-7-5-----||
|-------------------------------|----------------------------------||
|-------------------------------|----------------------------------||

||-------------------------------|----------------------------------| |
||--7--7--7-5-----7--7-5-7-5-7-5-|--5-5-5-5-7-5---------------------|*|
||------------0-0----------------|--------------5-5-5-5-5-5-7-5-5-5-| | x 4
||-------------------------------|----------------------------------|*|
||-------------------------------|----------------------------------| |



Rest for 8 bars



================================================================================
Part 3: Basses 1 & 2                                      [ Time 02:32 - 04:39 ]
================================================================================


-------
Bass 1:
-------


||------------------------|------------------------| |
||--------R-  -------R-  -|--------R-  -------R-  -|*|
||--------E-  -------E-  -|--------E-  -------E-  -| | x 14
||--5--5--S-  -3--3--S-  -|--------S-  -1--1--S-  -|*|
||--------T-  -------T-  -|--3--3--T-  -------T-  -| |


||---------------------------|------------------------|
||--------R-  -------R-------|--------R-  -------R-  -|
||--------E-  -------E-------|--------E-  -------E-  -|
||--0--0--S-  -0--0--S-3-5-5-|--0--0--S-  -0--0--S-  -|
||--------T-  -------T-------|--------T-  -------T-  -|


|------------------------|---------------------------| |
|--------R-  -------R-  -|--------R-  -------R-------|*|
|--------E-  -------E-  -|--------E-  -------E-------| | x 2
|--0--0--S-  -0--0--S-  -|--0--0--S-  -0--0--S-------|*|
|--------T-  -------T-  -|--------T-  -------T-3-3-3-| |



-------
Bass 2:
-------


||----------------------------------|----------------------------------|
||--7-7-7-7-7-5-----5-5-5-3-5-3-5-3-|----------------------------------|
||--------------0-0-----------------|--5-5-5-5-7-5-5-3-----------------|
||----------------------------------|------------------1-1-1-1-3-1-3-5-|
||----------------------------------|----------------------------------|


|----------------------------------|----------------------------------|
|--7-7-7-7-7-5-----5-5-5-3-5-3-5-3-|----------------------------------|
|--------------0-0-----------------|--5-5-5-5-7-5-5-3-----------------|
|----------------------------------|------------------1-1-1-1-3-1-----|
|----------------------------------|------------------------------3-3-|


|----------------------------------|----------------------------------|
|--7-7-7-7-7-5-----5-5-5-3-5-3-5-3-|----------------------------------|
|--------------0-0-----------------|--5-5-5-5-7-5-5-3-----------------|
|----------------------------------|------------------1-1-1-1-3-1-1-1-|
|----------------------------------|----------------------------------|


|----------------------------------|----------------------------------|
|--7-7-7-7-7-5-----5-5-5-3-5-3-5-3-|----------------------------------|
|--------------0-0-----------------|--5-5-5-5-7-5-5-3-----------------|
|----------------------------------|------------------1-1-1-1-3-1-----|
|----------------------------------|------------------------------3-3-|


|----------------------------------|----------------------------------|
|--7-7-7-7-7-5-----5-5-5-3-5-3-5-3-|----------------------------------|
|--------------0-0-----------------|--5-5-5-5-7-5-5-3-----------------|
|----------------------------------|------------------1-1-1-1-3-1-1-1-|
|----------------------------------|----------------------------------|


|----------------------------------|----------------------------------|
|--7-7-7-7-7-5-----5-5-5-3-5-3-5-3-|----------------------------5-3-7-|
|--------------0-0-----------------|--5-5-5-5-7-5-5-3-----------------|
|----------------------------------|------------------1-1-1-1-3-------|
|----------------------------------|----------------------------------|


|----------------------------------|----------------------------------|
|--7-7-7-7-7-5-----5-5-5-3-5-3-5-3-|----------------------------------|
|--------------0-0-----------------|--5-5-5-5-7-5-5-3-----------------|
|----------------------------------|------------------1-1-1-1-3-1-1-1-|
|----------------------------------|----------------------------------|


|----------------------------------|-------------------------------|
|--7-7-7-7-7-5-----5-5-5-3-5-3-5-3-|---------------------------R- -|
|--------------0-0-----------------|--5-5-5-5-7-5-5-3----------E- -|
|----------------------------------|------------------1-1-1-1--S- -|
|----------------------------------|---------------------------T- -|


|----------------------------------|---------------------------------|
|--7-7-7-7-7-5-----5-5-5-3-5-3-5-3-|---------------------------------|
|--------------0-0-----------------|--5-5-5-5-7-5-5-3----------------|
|----------------------------------|------------------1-1-1-1--1-1-1-|
|----------------------------------|---------------------------------|


|----------------------------------|----------------------------------|
|--7-7-7-7-7-5-----5-5-5-3-5-3-5-3-|----------------------------------|
|--------------0-0-----------------|--5-5-5-5-7-5-5-3-----------------|
|----------------------------------|------------------1-1-1-1-3-0-0-0-|
|----------------------------------|----------------------------------|


|----------------------------------|----------------------------------|
|--7-7-7-7-7-5-----5-5-5-3-5-3-5-3-|----------------------------------|
|--------------0-0-----------------|--5-5-5-5-7-5-5-3-----------------|
|----------------------------------|------------------1-1-1-1-3-1-1-1-|
|----------------------------------|----------------------------------|


|----------------------------------|----------------------------------|
|--7-7-7-7-7-5-----5-5-5-3-5-3-5-3-|----------------------------------|
|--------------0-0-----------------|--5-5-5-5-7-5-5-3-----------------|
|----------------------------------|------------------1-1-1-1-3-1-1-1-|
|----------------------------------|----------------------------------|


|----------------------------------|----------------------------------|
|--7-7-7-7-7-5-----5-5-5-3-5-3-5-3-|----------------------------------|
|--------------0-0-----------------|--5-5-5-5-7-5-5-3-----------------|
|----------------------------------|------------------1-1-1-1-3-1-1-1-|
|----------------------------------|----------------------------------|


|----------------------------------|----------------------------------||
|--7-7-7-7-7-5-----5-5-5-3-5-3-5-3-|----------------------------------||
|--------------0-0-----------------|--5-5-5-5-7-5-5-3-----------------||
|----------------------------------|------------------1-1-1-1-3-1-1-1-||
|----------------------------------|----------------------------------||


||--------7-9-------------7-9-------|--------9-------------------------|
||----------------------------5-7-0-|------------------------5-7-0-0-0-|
||--7-7-7-----7-7-7-7-7-7-----------|--7-7-7---7-7-7-7-7-7-7-----------|
||----------------------------------|----------------------------------|
||----------------------------------|----------------------------------|


|----------9-------------7-9-------|--------9-------------------------|
|----------------------------0-0---|------------------------5-7-0-0-0-|
|--7-7-7-7---7-7-7-7-7-7---------7-|--7-7-7---7-7-7-7-7-7-7-----------|
|----------------------------------|----------------------------------|
|----------------------------------|----------------------------------|


|----------9-------------7-9-------|--------9-------------------------|
|----------------------------5-7-0-|------------------------5-7-0-0-0-|
|--7-7-7-7---7-7-7-7-7-7-----------|--7-7-7---7-7-7-7-7-7-7-----------|
|----------------------------------|----------------------------------|
|----------------------------------|----------------------------------|


|----------9-------------7-9-------|--------9-------------------------||
|----------------------------0-0---|------------------------5-7-0-0-0-||
|--7-7-7-7---7-7-7-7-7-7---------7-|--7-7-7---7-7-7-7-7-7-7-----------||
|----------------------------------|----------------------------------||
|----------------------------------|----------------------------------||



================================================================================
Outro: Basses 1 & 2                                       [ Time 04:39 - 04:54 ]
================================================================================


||------------------------------| |
||-------------R-------------R--|*|
||--7-7-7-7-7--E--7-7-7-7-7--E--| | x 4
||-------------S-------------S--|*|
||-------------T-------------T--| |



================================================================================
End
================================================================================


Tab summary:        Part 1
                    Part 2
                    Part 3
                    Outro

                    END





Comments


Popular Smashing Pumpkins tabs & chords
Bury Me Bass Tabs
Hello Kitty Kat 2 Bass Tabs
Never Let Me Down Bass Tabs
Im Doing The Best I Can Chords
Mayonaise 1 Chords
Depresso Tabs
Mother 1 Tabs
Pastichio Medley 1 Tabs
Quiet 1 Tabs
Laugh Ukulele


Song lyrics



↑ Back to top | Tablatures and chords are parodies/interpretations of the original songs. You may use it for private study, scholarship, research or language learning purposes only
© 2014 AZChords.com Contact us | Privacy policy | DMCA | Add/correct tabs | Request tabs | Top 50 tabs