» » »

Smashing Pumpkins, Eye Tabs (ver.2)

Artists:  A B C D E F G H I J K L M N O P Q R S T U V W X Y Z # 

Eye Tabs (ver.2)

Smashing Pumpkins Tabs
 Rating:
4/5 (4 votes)
Eye lessons Tabs too difficult? Try these video lessons and learn fast
1
                "Eye" from the Lost Highway Soundtrack
                             by Billy Corgan


                     In Standard Tuning (EADGBE)


    Main Riff                                                           
E-----------------------------------------------------
B---------------------------------5--4--5--2--0--4--0-
G---------4-----3--4--1--4----------------------------
D---6--6-----6-----------------4----------------------
A-----------------------------------------------------
E-----------------------------------------------------
                                                                        

    Vocal Line                         
E------------------------------------------------
B------------------------------------------------
G--4---4--4--6--8--6--4---6--8--6--4--1----4----3
D------------------------------------------------
A------------------------------------------------
E------------------------------------------------
                                                                    
                                                                     
       Ending Riff                                                      
E-----------------------------------------------------
B-----------------------------------------------------
G--8--9--8--6--8--6--4--3--6--1-----------------------
D-----------------------------------------------------
A-----------------------------------------------------
E-----------------------------------------------------
            
Submit corrections

comments powered by Disqus
↑ Back to top | Smashing Pumpkins Tabs for Eye. Lyrics for acoustic guitar and electric guitar. 1 Tablatures and chords are parodies/interpretations of the original songs. You may use it for private study, scholarship, research or language learning purposes only