» » »

Smashing Pumpkins, Disarm Bass tabs (ver.1)

Artists:  A B C D E F G H I J K L M N O P Q R S T U V W X Y Z # 

Disarm Bass tabs (ver.1)

Smashing Pumpkins Tabs
Rating:
0/5 (0 votes)
Disarm lessons Tabs too difficult? Try these video lessons and learn fast
                Standard Tuning: E A D G


(x4)
|-------------------------------------------------------------------|
|-------------------------------------------------------------------|
|-----------------3-3-3-3-3-3-3-3-----------------------------------|
|-0-0-0-0-0-0-0-0------------------3-3-3-3-3-3-3-3-3-3-3-3-2-2-2-2--|

Fig2 (x1)
|------------------------------------------------------------|
|------------------------------------------------------------|
|-----------------3-3-3-3-3-3-3-3----------------------------|
|-0-0-0-0-0-0-0-0------------------3-3-3-3-3-3-3-3-3--3-2----|

(x1)
|---------------------------------------------------------------------------------------|
|---------------------------------------------------------------------------------------|
|-----------------3-3-3-3-3-3-3-3-------------------5-5-5-5-5-5-5-5--3-3-3-3-3-3-3-3-3--|
|-0-0-0-0-0-0-0-0------------------3-3-3-3-3-3-3-3--------------------------------------|


(x4) 
|-----------------------------------------------------------------------------------------------|
|-----------------------------------------------------------------------------------------------|
|-3-3-3-3-3-3-3-3-3-3-3-3-3-3-3-3---------------5-5-5-5-5-5-5-5--3-3-3-3-3-3-3-3-3-3-3-3-3-3-3--|
|---------------------------------0-0-0-0-0-0-0-------------------------------------------------|

(x1)
|-------------------------------------------------------------------------------------------------|
|-------------------------------------------------------------------------------------------------|
|-----------------5-5-5-5-5-5-5-5--3-3-3-3-3-3-3-3-3-3-3-3-3-3-3-3-3-3-3-3-3-3-3-3-3-3-3-3-3-3-3--|
|-0-0-0-0-0-0-0-0---------------------------------------------------------------------------------|

(x1)
|-------------------------------------------------------------------|
|-------------------------------------------------------------------|
|-----------------3-3-3-3-3-3-3-3-----------------------------------|
|-0-0-0-0-0-0-0-0------------------3-3-3-3-3-3-3-3-3-3-3-3-2-2-2-2--|

(x1)
|------------------------------------------------------------|
|------------------------------------------------------------|
|-----------------3-3-3-3-3-3-3-3----------------------------|
|-0-0-0-0-0-0-0-0------------------3-3-3-3-3-3-3-3-3--3-2----|

(x1)
|---------------------------------------------------------------------------------------|
|---------------------------------------------------------------------------------------|
|-----------------3-3-3-3-3-3-3-3-------------------5-5-5-5-5-5-5-5--3-3-3-3-3-3-3-3-3--|
|-0-0-0-0-0-0-0-0------------------3-3-3-3-3-3-3-3--------------------------------------|

(x4)
|----------------------------------------------------------------|
|----------------------------------------------------------------|
|-3-3-3-3-3-3-3-3-3-3-3-3-3-3-3--7-7-7-7-7-7-7--5-5-5-5-5-5-5-5--|
|----------------------------------------------------------------|

(x4)
|----------------------------------------------------------------|
|----------------------------------------------------------------|
|-3-3-3-3-3-3-3-3-3-3-3-3-3-3-3--5-5-5-5-5-5-5--7-7-7-7-7-7-7-7--|
|----------------------------------------------------------------|

(x1)
|---------------------------------------------------------------------------------------------------|
|---------------------------------------------------------------------------------------------------|
|-5-5-5-5-5-5-5--7-7-7-7-7-7-7--5-5-5-5-5-5-5--7-7-7-7-7-7-7--5-5-5-5-5-5-5--7-7-7-7-7-7-7--3-3--3--|
|---------------------------------------------------------------------------------------------------|



its 100% correct

Enjoy
xx ashley<3
            

comments powered by Disqus
↑ Back to top | Smashing Pumpkins Bass for Disarm. Lyrics for acoustic guitar and electric guitar. Tablatures and chords are parodies/interpretations of the original songs. You may use it for private study, scholarship, research or language learning purposes only