» » »

Smashing Pumpkins, Day Dream Tabs (ver.4)

Artists:  A B C D E F G H I J K L M N O P Q R S T U V W X Y Z # 

Day Dream Tabs (ver.4)

Smashing Pumpkins Tabs
 Rating:
4/5 (4 votes)
Day Dream lessons Tabs too difficult? Try these video lessons and learn fast
                "Daydream, from Gish (1991)

ALL THE OTHER TABS OF THIS SONG ARE WRONG!

Tuning: E A D Gb B D with a CAPO ON 2nd FRET
(Open strings are relative to the capo so technically they are the 2nd fret)


VERSE
                                        x2
|-0-------0-------0-------0---0---0-------|
|-0-------0-------0-------0---0---0-------|
|-0-------0-------0-------0---0---0-------|
|-4-------2-------5-------2---4---5-------|
|-2-------0-------5-------2---4---5-------|
|-----------------3-------0---2---3-------|


BRIDGE
|-0---0---0-------|
|-0---0---0-------|
|-0---0---0-------|
|-2---4---5-------|
|-2---4---5-------|
|-0---2---3-------|

  
VERSE 2
                                        x2
|-0-------0-------0-------0---0---0-------|
|-0-------0-------0-------0---0---0-------|
|-0-------0-------0-------0---0---0-------|
|-4-------2-------5-------2---4---5-------|
|-2-------0-------5-------2---4---5-------|
|-----------------3-------0---2---3-------|


String arrangement for 1 guitar in standard tuning

|---------------|
|---------------|
|---------------|
|---------------|
|-12~~~~-11~~~~-|
|---------------|


BRIDGE 2
|-0---0---0-------|
|-0---0---0-------|
|-0---0---0-------|
|-2---4---5-------|
|-2---4---5-------|
|-0---2---3-------|


String arrangement for 2 guitars in standard tuning

|-12-11-9-------------|
|----------12-10-9----|
|---------------------|
|---------------------|
|---------------------|
|---------------------|
|
|---------------------|
|---------------------|
|-9--8----------------|
|-------11-9----------|
|-------------12-11---|
|---------------------|


CHORUS
|-0-------0-------0-------0---0---|
|-0-------0-------0-------0---0---|
|-0-------0-------0-------0---0---|
|-4-------2-------5-------2---4---|
|-2-------0-------5-------2---4---|
|-----------------3-------0---2---|

|-0-------0-------0-------0---0---0-------|
|-0-------0-------0-------0---0---0-------|
|-0-------0-------0-------0---0---0-------|
|-4-------2-------5-------2---4---5-------|
|-2-------0-------5-------2---4---5-------|
|-----------------3-------0---2---3-------|


String arrangement for 3 guitars in standard tuning

|---------------------------------------------------------------------|
|-9--9--9--9--9--9--9--9----------------------------------------------|
|-------------------------11----8--------------------------11---------|
|------------------------------------11--------------------------9----|
|---------------------------------------------------------------------|
|---------------------------------------------------------------------|
|
|---------------------------------------------------------------------|
|---------------------------------------------------------------------|
|---------------------------------------------------------------------|
|-11-11-11-11-11-11-11-11-9-------------------------------------------|
|------------------------------------11b12r11b12r11--------9-----11---|
|----------------------------------------------------12---------------|
|
|---------------------------------------------------------------------|
|---------------------------------------------------------------------|
|---------------------------------------------------------------------|
|---------------------------------------------------------------------|
|---------------------------------------------------------------------|
|-9--9--9--9--9--9--9--9--11----7----5---------------------2-----4----|


End on
|-------|
|-10----|
|-------|
|-------|
|-------|
|-------|
|
|-------|
|-------|
|-------|
|-11----|
|-------|
|-------|
|
|-------|
|-------|
|-------|
|-------|
|-------|
|-5-----|
"            
Submit corrections

comments powered by Disqus
↑ Back to top | Smashing Pumpkins Tabs for Day Dream. Lyrics for acoustic guitar and electric guitar. Tablatures and chords are parodies/interpretations of the original songs. You may use it for private study, scholarship, research or language learning purposes only