» » »

Smashing Pumpkins, Day Dream Tabs (ver.1)

Artists:  A B C D E F G H I J K L M N O P Q R S T U V W X Y Z # 

Day Dream Tabs (ver.1)

Smashing Pumpkins Tabs
 Rating:
4/5 (4 votes)
Day Dream lessons Tabs too difficult? Try these video lessons and learn fast
                The Smashing Pumpkins
Daydream
Off Gish (1991)
Written by Billy Corgan and D´arcy Wretzky


A little masterpiece from the early years. Actually 
there´s a capo on the 2nd fret used for this song. 
But I wrote down how to play it without one. I also 
added the capo chords, for the people that can call
a capo their own. 



Standard Tuning



Guitar 1: Billy
Guitar 2: James



Verse:

Both guitars
|--2-2-2-2-2-2-2-2-2-2-2-2-2-2-2-2-------------------|
|--2-2-2-2-2-2-2-2-2-2-2-2-2-2-2-2-------------------| 
|--2-2-2-2-2-2-2-2-2-2-2-2-2-2-2-2-------------------| 
|--6-6-6-6-6-6-6-6-4-4-4-4-4-4-4-4-7-7-7-7-7-7-7-7---|
|--4-4-4-4-4-4-4-4-2-2-2-2-2-2-2-2-7-7-7-7-7-7-7-7---|
|----------------------------------5-5-5-5-5-5-5-5---|

Both guitars
|--2-2-2-2-------------------|
|--2-2-2-2-------------------|
|--2-2-2-2-------------------| repeat
|--4-4-4-4-6-6-6-6-7-7-7-7---|
|--4-4-4-4-6-6-6-6-7-7-7-7---|
|--2-2-2-2-4-4-4-4-5-5-5-5---|



Bridge:

|--2-2-2-2-------------------|
|--2-2-2-2-------------------|
|--2-2-2-2-------------------|
|--4-4-4-4-6-6-6-6-7-7-7-7---|
|--4-4-4-4-6-6-6-6-7-7-7-7---|
|--2-2-2-2-4-4-4-4-5-5-5-5---|


Verse: Billy: same

James
|------------------|
|------------------|
|------------------|
|------------------|
|--12~~~~-11~~~~---|
|------------------|


Bridge: Billy: same

James
|--12-11-9------------|
|-----------12-10-9---|
|---------------------|
|---------------------|
|---------------------|
|---------------------|


Outro:

Billy
|--2-2-2-2-2-2-2-2-2-2-2-2-2-2-2-2-------------------|
|--2-2-2-2-2-2-2-2-2-2-2-2-2-2-2-2-------------------| 
|--2-2-2-2-2-2-2-2-2-2-2-2-2-2-2-2-------------------| 
|--6-6-6-6-6-6-6-6-4-4-4-4-4-4-4-4-7-7-7-7-7-7-7-7---|
|--4-4-4-4-4-4-4-4-2-2-2-2-2-2-2-2-7-7-7-7-7-7-7-7---|
|----------------------------------5-5-5-5-5-5-5-5---|

Billy
|--2-2-2-2-----------|
|--2-2-2-2-----------|
|--2-2-2-2-----------| repeat all this
|--4-4-4-4-6-6-6-6---|
|--4-4-4-4-6-6-6-6---|
|--2-2-2-2-4-4-4-4---|

Billy
|------------|
|------------|
|------------|
|--7-7-7-7---|
|--7-7-7-7---|
|--5-5-5-5---|




James
|------------------------------------------------|
|--9-9-9-9-9-9-9-9-------------------------------|
|------------------11---8------------------------|
|---------------------------11-------------------|
|---------------------------11b12r11b12r11-------|
|-------------------------------------------12---|

James
|----------------|
|-----------10---|
|---11-----------|
|--------9-------|
|---9------------|
|----------------|





With Capo:

Standard Chords:
|--2---2-------2-------|
|--2---2-------2-------|
|--2---2-------2-------|
|--6---4---7---4---6---|
|--4---2---7---4---6---|
|----------5---2---4---|

Capo Chords:
|--0---0---0---0---0---|
|--0---0---0---0---0---|
|--0---0---0---0---0---|
|--4---2---5---2---4---|
|--2---0---5---2---4---|
|----------3---0---2---|


2nd Verse:

James
|-----------------|
|-----------------|
|-----------------|
|-----------------|
|--10~~~~-9~~~~---|
|-----------------|


2nd Bridge:

James
|--10-9-7-----------|
|----------10-8-7---|
|-------------------|
|-------------------|
|-------------------|
|-------------------|


Outro:

James
|--------------------------------------------|
|--7-7-7-7-7-7-7-7---------------------------|
|------------------9---6---------------------|
|--------------------------9-----------------|
|--------------------------9b10r9b10r9-------|
|---------------------------------------10---|

James
|--------------|
|----------8---|
|---9----------|
|-------7------|
|---7----------|
|--------------|



"Way down deep and in my heart lies a soul that´s
torn apart"
            
Submit corrections

comments powered by Disqus
↑ Back to top | Smashing Pumpkins Tabs for Day Dream. Lyrics for acoustic guitar and electric guitar. Tablatures and chords are parodies/interpretations of the original songs. You may use it for private study, scholarship, research or language learning purposes only