» » »

Smashing Pumpkins, Cupid De Locke Bass tabs (ver.1)

Artists:  A B C D E F G H I J K L M N O P Q R S T U V W X Y Z # 

Cupid De Locke Bass tabs (ver.1)

Smashing Pumpkins Tabs
Rating:
0/5 (0 votes)
Cupid De Locke lessons Tabs too difficult? Try these video lessons and learn fast
                It's a lovely song with a nice easy bass part (: 

Intro (0:05):
G|------------0~-------------|
D|----1~-3~-3---1~-0~-0------|
A|----------------------1~---|
E|---------------------------|

Verse (0:11):
G|------------------|
D|----1-1-0-0-------|
A|------------1-1---|
E|----------------4-| ...x16


(0:52):
G|------------0~----|
D|----1-1-3-3~------|
A|---------------3~-|
E|------------------|

(0:55) "with turpentine kisses and mistaken blows..."
G|------------------|----------0-0-0-0-1-1-1-3-----|
D|------------1-----|--3-3-3-3-----------------6/--|
A|----3~-3-1~---1~--|------------------------------|
E|------------------|------------------------------|

(1:05):
G|------------------|
D|----1-1-0-0-------|
A|------------1-1---|
E|----------------4-| ...x16

(1:37):
G|------------0~----|
D|----1-1-3-3~------|
A|---------------3~-|
E|------------------|

(1:40) "so note all ye lovers in love with the sound..."
G|------------------|----------0-0-0-0-1-1-1-3-1-3-1--------|
D|------------1-----|--3-3-3-3------------------------------|
A|----3~-3-1~---1~--|---------------------------------------|
E|------------------|---------------------------------------|

(1:50)
G|------------------|              |------|
D|----1-1-0-0-------|              |------|
A|------------1-1---|              |------|
E|----------------4-| ...x2, then: |--4~~-|

(1:59)
G|------------------|
D|----1-1-0-0-------|
A|------------1-1---|
E|----------------4-| ...x14

(2:35)
G|------------0-0---|
D|----1-1-3-3-------|
A|------------------|
E|------------------|

(2:38)
G|------------------|
D|----1-1-0-0-------|
A|------------1-1---|
E|----------------4-| 
            

comments powered by Disqus
↑ Back to top | Smashing Pumpkins Bass for Cupid De Locke. Lyrics for acoustic guitar and electric guitar. Tablatures and chords are parodies/interpretations of the original songs. You may use it for private study, scholarship, research or language learning purposes only