» » »

Smashing Pumpkins, Crush Bass tabs (ver.3)

Artists:  A B C D E F G H I J K L M N O P Q R S T U V W X Y Z # 

Crush Bass tabs (ver.3)

Smashing Pumpkins Tabs
 Rating:
4/5 (4 votes)
Crush lessons Tabs too difficult? Try these video lessons and learn fast
                Tuning: Standard
Bassist: D'arcy Wretzky

Riff 1 (Verse)
G|--------------------------------------------------------|
D|-----------------3-4-6----8-----6-----------------------|
A|----------3-4-6---------6---4-4-------------------------|
E|----4--6---------------------------4-4-4-4-4-4-4-4-4----|


Riff 2 (Verse)
G|--------------------------------------------------------|
D|-----------------3-4-6----8-----6-----------------------|
A|----------3-4-6---------6---4-4---4---------------------|
E|----4--6-----------------------------4-4-4-4-4-4-4-4-4--|

Repeat Riff 2 until the Chorus

Chorus
G|--------------------------------------------------------|
D|------------3-4-6-----6----6----------------------------|
A|-----1-3-4----------------------------------------------|
E|---2---------------44---44---4--------------------------|

End Chorus with the following riff:

(All that matters is love, love, your love)
G|--------------------------------------------------------|
D|------------3-4-6--------8\-----------------------------|
A|-----1-3-4-------------6----4---------------------------|
E|---2---------------44-----------------------------------|

Break
G|--------------------------------------------------------|
D|--------------------------------------------------------|
A|------4/9----11-----------------------------------------|
E|--------------------------------------------------------|

Repeat Riff 2/Verse

Repeat Chorus

After the Chorus:
G|--------------------------------------------------------|
D|--------------------------------------------------------|
A|------6-6-6-6-6-6-6-6-4-4-4-4-4-4-4-4-------------------|
E|--------------------------------------------------------|

End song with this:
G|--------------------------------------------------------|
D|-----------------3-4-6----8-----6---/6------------------|
A|----------3-4-6---------6---4-4---4---------------------|
E|----4--6------------------------------------------------|

That’s it, fairly easy. It’s nice to throw in some kind of chorus effect or reverb to 
to the atmosphere of the song. I heavily recommend Gish; a great album to daydream to. 
            
Submit corrections

comments powered by Disqus
↑ Back to top | Smashing Pumpkins Bass for Crush. Lyrics for acoustic guitar and electric guitar. Tablatures and chords are parodies/interpretations of the original songs. You may use it for private study, scholarship, research or language learning purposes only