» » »

Come On Lets Go Tabs (ver.1)

Artists:  A B C D E F G H I J K L M N O P Q R S T U V W X Y Z # 

Come On Lets Go Tabs (ver.1)

Smashing Pumpkins
Rating:
0/5 (0 votes)

Hard to play? Try these video lessons and learn fast.
                
Since noone decided to tab it out, im gonna give it a try

 I've arranged this song for one guitar even though there are two,so you tune the bottom
down(being E A & D) 1 1/2 steps from standard tuning and the top three strings down 1/2
down from standard.FYI: The slides sound a whole lot better if you play the slides as 
as you hit the note.

legend
- / = slide
- b = bend
- x = palm mute
- h = hammer on
- p = pull-off


But any way here we go:

Intro
start with a pickslide then:
D#|----------10-10/13-10-------------------------------------------------|
A#|-10-10/13-------------13-10-8-8/10--10-10h11p10-8----10--11-10-8b10---|
F#|--------------------------------------------------10---------------10-|
A#|----------------------------------------------------------------------|
F#|----------------------------------------------------------------------|
C#|----------------------------------------------------------------------|

|-10-10--8---------------------------------|
|----------10---13b15-10-8b|grad bend up|--|
|------------------------------------------|
|------------------------------------------|
|------------------------------------------|
|------------------------------------------|

NOTE: the intro is backed by the verse

verse:
D#|-------------------------------|
A#|-------------------------------|
F#|-------------------------------|  repeat 4x
A#|-----5-------------------------|
F#|-------3-3-3-5-------3-3-3-2---|
C#|-0-0-----------3-3-1-----------|
"come on lets go..."

bridge

|--------------------------------------------------------------------|
|--------------------------------------------------------------------|
|--------------------------------------------------------------------|
|-7-7--8--8--8/9---9-9--7--7--5---7-7--8--8/9---9-9--7--7--5---5/7---|
|-5-5--6--6--6/7---7-7--5--5--3---5-5--6--6/7---7-7--5--5--3---3/5---|
|--------------------------------------------------------------------|
 "you could be my friend..."

 The chorus is also backed by the verse

 chorus
|-------------------------------------------------------------------------|
|---1-3-3/6-3-1-----------------------1-3-3/6-3-1-------------------------|
|-2-------------2-0-2--2--2h3p2-----2-------------2-0--2-3-2-0---2-2--0---|
|-------------------------------7\0----------------------------5--------5-|
|-------------------------------------------------------------------------|
|-------------------------------------------------------------------------|
 "tears were once my only way back home.."

The verse part finishes the chorus

REPEAT VERSE

then this little fill of what i think is another bridge
|-------------------------------------------------------------|
|-1-2-3--3/6-3-1------------------1-2-3--3/6-3-1--------------|
|----------------2--3-2-0--2-0-------------------2--3-2-0-----|
|------------------------------5------------------------------|
|-------------------------------------------------------------|
|-------------------------------------------------------------|

and the power chords after it

|---------------------------------------------------|
|---------------------------------------------------|
|---------------------------------------------------|
|-5-5--7--5--5---4---5-5--7--5--5---4---7----7/9----|
|-3-3--5--3--3---2---3-3--5--3--3---2---5----5/7----|
|---------------------------------------------------|
 "anesthized im hallow playing to the dark back row"

The fill between the bridge and the solo is the verse part

solo
|---------------------13-10--------10--------------------------------------|
|-13b15-10-8-10-8-6---------13--13----10--13-10-8b10-8-6-------------------|
|--------------------------------------------------------------------------|
|--------------------------------------------------------------------------|
|--------------------------------------------------------------------------|
|--------------------------------------------------------pickslide---------|


-----------------------------------------------------------|
-10-11-10-8b9-6--13b15-10-8b-(grad bend up)----------------|
-----------------------------------------------------------|
-----------------------------------------------------------|
-----------------------------------------------------------|
-----------------------------------------------------------|

 im not very sure but i think this another fill
|-------------------------------------------------------------------|
|-------------------------------------------------------------------|
|-------------------------------------------------------------------|
|-------9-9-9-9------12-12-12-12-------9-9-9-9-------12-12-12-12----|
|-------7-7-7-7------10-10-10-10-------7-7-7-7-------10-10-10-10----|
|-0-0-0---------0-0-0------------0-0-0---------0-0-0----------------|
 "assimilate, its all been staged..."

--------------------------------|-------------------|
--------------------------------|-------------------|
--------------------------------|on last part-------|   repeat 2x
------9-9\7--7-------9-9/12--12-|-------------------|
------7-7\5--5-------7-7/10--10-|-------------------|
-0-0-0---------0-0-0------------|-00000000000-------|

|------------------------------------------------------------------|
|------------------------------------------------------------------|
|------------------------------------------------------------------|
|--7-5-3-3--5-3-2---7-5-3-3--5-3-4--7-7---7-5-3-3--5-3-2--2--2-2/4-|
|--------------------------------2--5-5----------------------------|
|------------------------------------------------------------------|
 "Lord Save Me.."

Repeat Verse 4x

Repeat Chorus until the end backed by the verse


And there you go! Have Fun. Please Rate.
            
Hard to play? Try these video lessons and learn fast. | Correct




comments powered by Disqus
↑ Back to top | Tablatures and chords are parodies/interpretations of the original songs. You may use it for private study, scholarship, research or language learning purposes only