>
 >
Bring The Light

Bring The Light Bass Tabs

Smashing Pumpkins - Bring The Light chords, tabs, tablatures, lyrics

Guitar lessons | Add/correct | Request | Top 50 tabs Artists:  A B C D E F G H I J K L M N O P Q R S T U V W X Y Z 0-9

Bring The Light Bass Tabs – Smashing Pumpkins

CD, Sheet music, Poster

Do you like Bring The Light? Share with your friends now
Bass TabsTabsTabs v2
================================================================================
                       S M A S H I N G   P U M P K I N S

                                       -

                          B R I N G   T H E   L I G H T
================================================================================


                                    ZEITGEIST
                           (c) Reprise Records - 2007


                          Tune Down a 1/2 Step, then Drop D
                                    C# G# C# F#

                                 Tempo = 146 BPM
                               Time Signature = 4/4



                          -----------------------------

                                 PADDY MCMULLAN

                                   Version 1.0
                               21st December 2009
                             -----------------------

                             Tablature Symbols Used:


 p         -  Pull-Off
 h         -  Hammer-On
 (/)       -  Legato Slide (Blank space indicates length of slide)
 \         -  Slide Down to/Down From (Blank space indicates length of slide)
 /         -  Slide Up To/Up From (Blank space indicates length of slide)
 ( )       -  Ghost Note/Tied Note/Implied Note
 REST      -  Rest and sustain rest for duration of blank space
 *         -  Staccato



================================================================================
Rest for 8 bars
================================================================================

================================================================================
Pre-Chorus 1: Play once
================================================================================


||--------------------------|--------------------------|
||--------------------------|--------------------------|
||--------------------------|--------------------------|
||--3--3--3--3--3--3--0--0--|--7--7--7--7--7--7--0--0--|


|--------------------------------|--------------------------|
|--------------------------------|--------------------------|
|--------------------------------|--------------5--5--5--5--|
|--10--10--10--10--10--10--0--0--|--5--5--5--5--------------|


|--------------------------|------------------------||
|--------------------------|------------------------||
|--------------------------|------------------------||
|--3--3--3--3--3--3--0--0--|--7--7--7--7--0----0----||



================================================================================
Chorus 1: Play once
================================================================================


||--------------------------|--------------------------|
||--------------------------|--------------------------|
||--------------------------|--------------------------|
||--3--3--3--3--3--3--0--0--|--7--7--7--7--7--7--0--0--|


|--------------------------------|--------------------------|
|--------------------------------|--------------------------|
|--------------------------------|--------------------------|
|--10--10--10--10--10--10--0--0--|--5--5--5--5--7--7--7--7--|


|--------------------------|--------------------------|
|--------------------------|--------------------------|
|--------------------------|--------------------------|
|--3--3--3--3--3--3--0--0--|--7--7--7--7--7--7--0--0--|


|--------------------------------|--------------------------|
|--------------------------------|--------------------------|
|--------------------------------|--------------------------|
|--10--10--10--10--10--10--0--0--|--5--5--5--5--0--0--0--0--|


|----------------------|-------------------|-------------------------|
|----------------------|-------------------|-------------------------|
|----------------------|-------------------|-------------------------|
|--7------0------10----|--(10)-------------|--10------10---  \--5----|


|----------------------|-------------------||
|----------------------|-------------------||
|----------------------|-------------------||
|--(5)------------  \--|--0----------------||



================================================================================
Verse 2: Play twice
================================================================================


||--------------------------|--------------------------|
||--------------------------|--------------------------|
||--------------------------|--------------------------|
||--3--3--3--3--3--3--0--0--|--7--7--7--7--0--0--0--0--|


|--------------------------------|--------------------------| |
|--------------------------------|--------------------------|*|
|--------------------------------|--------------------------|*|
|--10--10--10--10--10--10--0--0--|--5--5--5--5--0--0--0--0--| |



================================================================================
Pre-Chorus 2: Repeat Pre-Chorus 1
================================================================================

================================================================================
Chorus 2: Play once
================================================================================


||--------------------------|--------------------------|
||--------------------------|--------------------------|
||--------------------------|--------------------------|
||--3--3--3--3--3--3--0--0--|--7--7--7--7--7--7--0--0--|


|--------------------------------|--------------------------|
|--------------------------------|--------------------------|
|--------------------------------|--------------------------|
|--10--10--10--10--10--10--0--0--|--5--5--5--5--7--7--7--7--|


|--------------------------|--------------------------|
|--------------------------|--------------------------|
|--------------------------|--------------------------|
|--3--3--3--3--3--3--0--0--|--7--7--7--7--7--7--0--0--|


|--------------------------------|--------------------------| |
|--------------------------------|--------------------------|*|
|--------------------------------|--------------------------|*| x 2
|--10--10--10--10--10--10--0--0--|--5--5--5--5--0--0--0--0--| |


|---------------------|-------------------|-------------------------|
|---------------------|-------------------|-------------------------|
|---------------------|-------------------|-------------------------|
|--3------0------7----|--(7)--------------|--10------10---  \--5----|


|----------------------|-------------------||
|----------------------|-------------------||
|----------------------|-------------------||
|--(5)------------  \--|--4----------------||



================================================================================
Bridge Part I: Play once
================================================================================


||--------------------------|--------------------------|
||--------------------------|--------------------------|
||--*-----*-----*-----*-----|--*-----*-----*-----*-----|
||--7-----7-----7-----7-----|--7-----7-----7-----7-----|


|--------------------------|---------------------------|
|--------------------------|---------------------------|
|--*-----*-----*-----*-----|--*-----*-----*------------|
|--7-----7-----7-----7-----|--7-----7-----7-----7--5 \-|


|--------------------------|--------------------------|
|--------------------------|--------------------------|
|--*-----*-----*-----*-----|--*-----*-----*-----*-----|
|--0-----0-----0-----0-----|--0-----0-----0-----0-----|


|--------------------------|----------------------------|
|--------------------------|----------------------------|
|--*-----*-----*-----*-----|--*-----*-------------------|
|--0-----0-----0-----0-----|--0-----0-----0 h 2--(3/5)--|


|--------------------------|--------------------------|
|--------------------------|--------------------------|
|--*-----*-----*-----*-----|--*-----*-----*-----*-----|
|--7-----7-----7-----7-----|--7-----7-----7-----7-----|


|--------------------------|---------------------------||
|--------------------------|---------------------------||
|--*-----*-----*-----*-----|--*-----*-----*------------||
|--7-----7-----7-----7-----|--7-----7-----7-----7--5 \-||



================================================================================
Bridge Part II: Play once
================================================================================


||--------------------------|--------------------------|
||--------------------------|--------------------------|
||-----5--5-----5--5-----5--|--5-----------------------|
||--0--------0--------0-----|-----0--0--0--5--5--6--6--|


|--------------------------|--------------------------|
|--------------------------|--------------------------|
|-----5--5-----5--5-----5--|--5-----------------------|
|--0--------0--------0-----|-----0--0--0--5--6--5--3--|


|--------------------------|--------------------------|
|--------------------------|--------------------------|
|-----5--5-----5--5-----5--|--5-----------------------|
|--0--------0--------0-----|-----0--0--0--5--5--6--6--|


|------------------------|--------------------------||
|------------------------|--------------------------||
|----------8\ -----------|--------------------------||
|--7\ -------------0--0--|--0--0--0--0--0--0--0--0--||



================================================================================
Guitar Solo Backing: Play once
================================================================================


||--------------------------|--------------------------|
||--------------------------|--------------------------|
||--------------------------|--------------------------|
||--3--3--3--3--3--3--0--0--|--7--7--7--7--7--7--7--0--|


|--------------------------------|--------------------------|
|--------------------------------|--------------------------|
|--------------------------------|--------------------------|
|--10--10--10--10--10--10--7--7--|--5--5--5--5--4--4--7--0--|


|--------------------------|--------------------------|
|--------------------------|--------------------------|
|--------------------------|--------------------------|
|--3--3--3--3--3--3--0--0--|--7--7--7--7--7--7--7--0--|


|--------------------------------|--------------------------||
|--------------------------------|--------------------------||
|--------------------------------|--------------------------||
|--10--10--10--10--10--10--7--7--|--5--5--5--5--5--7--7--7--||



================================================================================
Chorus 3: Play once
================================================================================


||------------------------|------------------------|
||------------------------|------------------------|
||------------------------|------------------------|
||--3--3----3--3----0--0--|--7--7----7--7----0--0--|


|--------------------------|--------------------------|
|--------------------------|--------------------------|
|--------------------------|--------------------------|
|--10------10--10----0--0--|--5----5--5--5 h 7--5--0--|


|------------------------|------------------------|
|------------------------|------------------------|
|------------------------|------------------------|
|--0--0----0--0----0--2--|--3--3----3--3----0--0--|


|--------------------------|--------------------------------|
|--------------------------|--------------------------------|
|--------------------------|--------------------------------|
|--7--7--7--7--7--7--7--7--|--10--10--10--10--10--10--0--0--|


|--------------------------|--------------------------|
|--------------------------|--------------------------|
|--------------------------|--------------------------|
|--3--3--3--3--3--3--0--0--|--7--7--7--7--7--7--7--0--|


|--------------------------------|--------------------------|
|--------------------------------|--------------------------|
|--------------------------------|--------------------------|
|--10--10--10--10--10--10--7--7--|--5--5--5--5--5--6--7\  --|


|--------------------------|--------------------------|
|--------------------------|--------------------------|
|--------------------------|--------------------------|
|--3--3--3--3--3--3--0--0--|--7--7--7--7--7--7--7--0--|


|--------------------------------|--------------------------|
|--------------------------------|--------------------------|
|--------------------------------|--------------------------|
|--10--10--10--10--10--10--7--7--|--5--5--5--5--5--7--7--7--|


|--------------------------|--------------------------|
|--------------------------|--------------------------|
|--------------------------|--------------------------|
|--3--3--3--3--3--3--0--0--|--7--7--7--7--7--7--7--0--|


|--------------------------------|--------------------------|
|--------------------------------|--------------------------|
|--------------------------------|--------------------------|
|--10--10--10--10--10--10--7--7--|--5--5--5--5--5--6--7\  --|


|--------------------|----------------------||
|--------------------|----------------------||
|--------------------|----------------------||
|--3------------0----|--7--------6-----  \--||



================================================================================
Outro: Play once
================================================================================


||--------------------------|--------------------------|
||--------------------------|--------------------------|
||--------------------------|--------------------------|
||--3--3--3--3--3--3--0--0--|--7--7--7--7--7--7--0--0--|


|--------------------------------|----------------------------|
|--------------------------------|----------------------------|
|--------------------------------|----------------------------|
|--10--10--10--10--10--10--0--0--|--9--9--9--9--10--12--0--0--|


|--------------------------|--------------------------|
|--------------------------|--------------------------|
|--------------------------|--------------------------|
|--3--3--3--3--3--3--0--0--|--7--7--7--7--7--7--0--0--|


|--------------------------------|----------------------------|
|--------------------------------|----------------------------|
|--------------------------------|----------------------------|
|--10--10--10--10--10--10--0--0--|--9--9--9--9--10--12--0--0--|


|--------------------------|--------------------------|
|--------------------------|--------------------------|
|--------------------------|--------------------------|
|--3--3--3--3--3--3--0--0--|--7--7--7--7--7--7--0--0--|


|--------------------------------|----------------------------|
|--------------------------------|----------------------------|
|--------------------------------|----------------------------|
|--10--10--10--10--10--10--0--0--|--9--9--9--9--10--12--0--0--|


|--------------------------|--------------------------|
|--------------------------|--------------------------|
|--------------------------|--------------------------|
|--3--3--3--3--3--3--0--0--|--7--7--7--7--7--7--0--0--|


|--------------------------------|--------------------------|
|--------------------------------|--------------------------|
|--------------------------------|--------------------------|
|--10--10--10--10--10--10--0--0--|--9--9--9--9--3--3--3--3--|


|--------------------------|--------------------------|
|--------------------------|--------------------------|
|--------------------------|--------------------------|
|--3--3--3--3--3--3--0--0--|--7--7--7--7--7--7--0--0--|


|--------------------------------|----------------------------|
|--------------------------------|----------------------------|
|--------------------------------|----------------------------|
|--10--10--10--10--10--10--0--0--|--9--9--9--9--10--12--0--0--|


|--------------------|--------------------|---------------------|
|--------------------|--------------------|---------------------|
|--------------------|--------------------|---------------------|
|--3------------0----|--7------------0----|--10------------0----|


|------------------------|-------------------|-------------------||
|------------------------|-------------------|-------------------||
|------------------------|-------------------|-------------------||
|--9-----  \--5-----  \--|--3----------------|--(3)--------------||



================================================================================
End
================================================================================


Tab summary:        Rest for 8 bars
                    Pre-Chorus 1 x 1
                    Chorus 1 x 1
                    Verse 2 x 2
                    Pre-Chorus 2 x 1
                    Chorus 2 x 1
                    Bridge:
                           Part I x 1
                           Part II x 1
                    Guitar Solo Backing x 1
                    Chorus 3 x 1
                    Outro x 1

                    END





Comments


Popular Smashing Pumpkins tabs & chords
Love 2 Bass Tabs
Believe Tabs
Blank Tabs
Blank Page 1 Tabs
Galapagos Tabs
Mayonnaise Tabs
Once Upon A Time Tabs
Sweet Sweet Tabs
Crestfallen Ukulele
Rhinoceros Ukulele


Song lyrics



↑ Back to top | Tablatures and chords are parodies/interpretations of the original songs. You may use it for private study, scholarship, research or language learning purposes only
© 2014 AZChords.com Contact us | Privacy policy | DMCA | Add/correct tabs | Request tabs | Top 50 tabs