>
 >
Bring The Light

Bring The Light Guitar Tabs

Smashing Pumpkins - Bring The Light chords, tabs, tablatures, lyrics

Guitar lessons | Add/correct | Request | Top 50 tabs Artists:  A B C D E F G H I J K L M N O P Q R S T U V W X Y Z 0-9

Bring The Light Guitar Tabs – Smashing Pumpkins

CD, Sheet music, Poster

Do you like Bring The Light? Share with your friends now
Bass TabsTabsTabs v2


--tuning: Db Gb B E Ab Db



--INTRO
|-----------------------------------------------------------------|
|-0-0-0-0-0-0-0-0-3-3-3-3-5-5-5-5-3-3-3-3-3-3-3-3-2-2-2-2-0-0-0(0)|
|-0-0-0-0-0-0-0-0-4-4-4-4-4-4-4-4-2-2-2-2-2-2-2-2-2-2-2-2-1-1-1-2-|
|-0-0-0-0-0-0-0-0-4-4-4-4-2-2-2-2-0-0-0-0-0-0-0-0-2-2-2-2-2-2-2-2-|
|-x-x-x-x-x-x-x-x-2-2-2-2-------------------------0-0-0-0-x-x-x-x-|
|-3-3-3-3-3-3-3-3-----------------------------------------4-4-4-4-|
  ...............................................................

 Guitar 1
|-----------------|
|-----------------|
|-4-4-4-4---------|
|-4-4-4-4-2-2-2-2-|
|-2-2-2-2-2-2-2-2-|
|---------0-0-0-0-|
|Guitar 2
|-----------------|
|-----------------|
|-7-7-7-7-9-9-9-9-|
|-----------------|
|-5-5-5-5-7-7-7-7-|
|-----------------|

 Guitar 1
|----------------------|
|----------------------|
|------4----7----------|
|-5----4----7----7--6--|
|-5----2----5----7--7--|
|-3--------------5--4--|
|Guitar 2
|----------------------|
|----------------------|
|-4----7----7----9--13-|
|----------------------|
|-2----5----5----7--11-|
|----------------------|

 Lead
|-17h19-19-17-19~~------------------------------------------------|
|-------------------17h19-19-17-19~~~~-19-19-19-17~~~~-19p17\15~~-|
|-----------------------------------------------------------------|
|-----------------------------------------------------------------|
|-----------------------------------------------------------------|
|-----------------------------------------------------------------|

 Guitar 1
|-----------------------------------------|
|-----------------------------------------|
|-----------------------------------------|
|-----------------------------------------|
|-----------------------------------------|
|-7--0--10~~~~----10--0--5~~~~---0--------|
|Guitar 2
|-----------------------------------------|
|-----------------------------------------|
|-11----11--------11--11-9------/13-------|
|-----------------------------------------|
|-9-----9---------9---9--7------/11-------|
|-----------------------------------------|

 Lead
|-----------------------------------------|
|-15~~~~~~~~------15-15b17r15-12~~~~~~~~--|
|-----------------------------------------|
|-----------------------------------------|
|-----------------------------------------|
|-----------------------------------------|


--VERSE
|---------------------------------------------------|
|-----0-----------------------3-----------2------0--|
|---0-------------4---------2-------------2------1--|
|---------------4---------0-------------2------2----|
|-------------2-----------------------0-------------|
|-3--------0---------0-------------0---------4------|

 Guitar 1
|-----------------|
|-----------------|
|-4-4-4-4---------|
|-4-4-4-4-2-2-2-2-|
|-2-2-2-2-2-2-2-2-|
|---------0-0-0-0-|
|Guitar 2
|-----------------|
|-----------------|
|-7-7-7-7-9-9-9-9-|
|-----------------|
|-5-5-5-5-7-7-7-7-|
|-----------------|


--CHORUS

 Guitar 1
|----------------------|
|----------------------|
|------4----7----------|
|-5----4----7----7--6--|
|-5----2----5----7--7--|
|-3--------------5--4--|
|Guitar 2
|----------------------|
|----------------------|
|-4----7----7----9--13-|
|----------------------|
|-2----5----5----7--11-|
|----------------------|

 Lead
|-17h19-19-17-19~~------------------------------------------------|
|-------------------17h19-19-17-19~~~~-19-19-19-17~~~~-19p17\15~~-|
|-----------------------------------------------------------------|
|-----------------------------------------------------------------|
|-----------------------------------------------------------------|
|-----------------------------------------------------------------|

 Guitar 1
|-----------------------------------------|
|-----------------------------------------|
|-----------------------------------------|
|-----------------------------------------|
|-----------------------------------------|
|-7--0--10~~~~----10--0--5~~~~---0--------|
|Guitar 2
|-----------------------------------------|
|-----------------------------------------|
|-11----11--------11--11-9------/13-------|
|-----------------------------------------|
|-9-----9---------9---9--7------/11-------|
|-----------------------------------------|

 Lead
|-----------------------------------------|
|-15~~~~~~~~------15-15b17r15-12~~~~~~~~--|
|-----------------------------------------|
|-----------------------------------------|
|-----------------------------------------|
|-----------------------------------------|


--INTERLUDE
|---2--------------2--------------2--------------2------------|
|-----3--------------3--------------3--------------3----------|
|-------4--------------4--------------4--------------4--------|
|-------------------------------------------------------------|
|-2--------------2--------------2--------------2--------------|
|-------------------------------------------------------------|


--BRIDGE
|-------------------------------------------------------------------------------|
|-------------------------------------------------------------------------------|
|-16-----19-----12-----12-----14---15---16-----19-----12-----12-----14/15\14\12-|
|-------------------------------------------------------------------------------|
|-14-----17-----10-----10-----12---13---14-----17-----10-----10-----12/13\12\10-|
|----0-0----0-0----0-0----0-0----0----0----0-0----0-0----0-0----0-0-------------|

|-----------------------------------------------------------------|
|-----------------------------------------------------------------|
|-16-----19-----12-----12-----14---15---16-----19-----12----------|
|-----------------------------------------------------------------|
|-14-----17-----10-----10-----12---13---14-----17-----10----------|
|----0-0----0-0----0-0----0-0----0----0----0-0----0-0----X\\\\----|


--SOLO

 Guitar 1
|----------------------|
|----------------------|
|------4----7----------|
|-5----4----7----7--6--|
|-5----2----5----7--7--|
|-3--------------5--4--|
|Guitar 2
|----------------------|
|----------------------|
|-4----7----7----9--13-|
|----------------------|
|-2----5----5----7--11-|
|----------------------|

 Lead Guitar 1
|-17b19~~~~----------------------------------------------------------------------------------
|------------/10~~~~--10h12-12gb14~~~~--10h12p10~~/17~~--15h17p15\14-14h15p14\12-12h14p12\10-
|--------------------------------------------------------------------------------------------
|--------------------------------------------------------------------------------------------
|--------------------------------------------------------------------------------------------
|--------------------------------------------------------------------------------------------
|Lead Guitar 2
|-14b15~~~~----------------------------------------------------------------------------------
|--------------------------------------------------------12h14p12\10-10h12p10\8--8h10p8\7----
|------------/7~~~~~--7h9---9gb11~~~~~-------------------------------------------------------
|---------------------------------------7h9p7~~~~~\6~~~--------------------------------------
|--------------------------------------------------------------------------------------------
|--------------------------------------------------------------------------------------------

 Lead Guitar 1
 --------------------------------------------------------------17XXX-|
 10h12p10\8-8h10p8\7-7h8p7\5-7----3-5-7-8-10-15XXX-17XXX-19XXX-------|
 --------------------------------------------------------------------|
 --------------------------------------------------------------------|
 --------------------------------------------------------------------|
 --------------------------------------------------------------------|
 Lead Guitar 2
 --------------------------------------------------------------14XXX-|
 7h8p7\5----5h7p5\3--3h5p3\2-3---------------12XXX-14XXX-15XXX-------|
 ---------------------------------4-6-7-9-11-------------------------|
 --------------------------------------------------------------------|
 --------------------------------------------------------------------|
 --------------------------------------------------------------------|


--ALT CHORUS
|---------------------------------------------------------------|
|---------------------------------------------------------------|
|---------------------------------------------------------------|
|---------------------------------------------------------------|
|---------------------------------------------------------------|
|-3~~~~-0-7~~~~-0-10~~~~-0-5~~-4~~-0----0-3~~~~-0-7~~~~--10~~~~-|

 Lead
|-17h19-19-17-19~~------------------------------------------------|
|-------------------17h19-19-17-19~~~~-19-19-19-17~~~~-19p17\15~~-|
|-----------------------------------------------------------------|
|-----------------------------------------------------------------|
|-----------------------------------------------------------------|
|-----------------------------------------------------------------|

|-17h19-19-17-19~~--------------------------------17~~~~----------|
|-------------------17h19-19-17-19~~~~-19-19-19~~-----------------|
|-----------------------------------------------------------------|
|-----------------------------------------------------------------|
|-----------------------------------------------------------------|
|-----------------------------------------------------------------|


--CHORUS

 Guitar 1
|----------------------|
|----------------------|
|------4----7----------|
|-5----4----7----7--6--|
|-5----2----5----7--7--|
|-3--------------5--4--|
|Guitar 2
|----------------------|
|----------------------|
|-4----7----7----9--13-|
|----------------------|
|-2----5----5----7--11-|
|----------------------|

 Lead
|-17h19-19-17-19~~------------------------------------------------|
|-------------------17h19-19-17-19~~~~-19-19-19-17~~~~-19p17\15~~-|
|-----------------------------------------------------------------|
|-----------------------------------------------------------------|
|-----------------------------------------------------------------|
|-----------------------------------------------------------------|

 Guitar 1
|--------------------|
|--------------------|
|--------------------|
|--------------------|
|--------------------|
|-3~~~~-0-7~~-6~~----|
|Guitar 2
|--------------------|
|--------------------|
|-4~~~~---4~~-3~~----|
|--------------------|
|-2~~~~---2~~-1~~----|
|--------------------|

 Lead
|--------------------|
|-15~~~---12~~15~~\--|
|--------------------|
|--------------------|
|--------------------|
|--------------------|


--OUTRO
|-3----2----0----0--0--|
|-3----3----3----2--0--|
|-0----4----2----2--1--|
|-0----4----0----2--2--|
|-2----2---------0--x--|
|-3-----------------4--|

 Lead
|-17\--12~~~~--|
|--------------|
|--------------|
|--------------|
|--------------|
|--------------|





b   - bend
r   - release
gb  - gradual bend
gr  - gradual release
h   - hammer on
p   - pull off
T   - trill
W   - whammy bar dive
\   - slide down
/   - slide up
x   - mute
X\  - pick slide
~~~ - vibrato
*7  - artificial harmonic
*7* - natural harmonic
... - palm mute
(0) - optional note
XXX - tremolo pick
alt - variation of riff





Comments


Popular Smashing Pumpkins tabs & chords
Disarm 2 Bass Tabs
Jellybelly Newest Bass Tabs
1979 1 Chords
Disarm 2 Chords
Go Chords
...Said Sadly 1 Tabs
Marquis In Spades Tabs
Sinfony Tabs
Slow Dawn Tabs
Ugly Demo 1 Tabs


Song lyrics



↑ Back to top | Tablatures and chords are parodies/interpretations of the original songs. You may use it for private study, scholarship, research or language learning purposes only
© 2014 AZChords.com Contact us | Privacy policy | DMCA | Add/correct tabs | Request tabs | Top 50 tabs