» » »

Smashing Pumpkins, Beautiful Chords (ver.2)

Artists:  A B C D E F G H I J K L M N O P Q R S T U V W X Y Z # 

Beautiful Chords (ver.2)

Smashing Pumpkins Tabs
 Rating:
4/5 (4 votes)
Beautiful lessons Tabs too difficult? Try these video lessons and learn fast
                Tuning: E A D G B E


Chords:
  A  A7 Bm D  E  F F#m G
|-0--0--2--2--0--1--2--3--|
|-2--2--3--3--0--1--2--3--|
|-2--0--4--2--1--2--2--0--|
|-2--2--4--0--2--3--4--0--|
|-0--0--2-----2--3--4--2--|
|-------------0--1--2--3--|


INTRO - Piano
|-12-14-----|
|-------14--|
|-----------|
|-----------|
|-----------|
|-----------|


VERSE
A G D A
A G D E


PRECHORUS
A E D D
A E D D
A E D E
G G


VERSE 2
A G D A
A G D E


CHORUS
D E A F#m
D E A A7
D E A F#m
Bm E A F#m
Bm E


INTERLUDE
|-------------------------------------------|
|-------------------------------------------|
|-----6b7r6----7---7----6h7-9/10----10---10-|
|---7--------5---5----0---------------------|
|-0-------------------------------8----8----|
|-------------------------------------------|

Rhythm plays this progression over above riff:
A G D F x7
A G D E E


CHORUS 2
D E A F#m
D E A A7
D E A F#m
Bm E A F#m
Bm E A F#m
Bm E F#m D


OUTRO
D E A F#m
D E F#m D
            
Submit corrections

comments powered by Disqus
↑ Back to top | Smashing Pumpkins Chords for Beautiful. Lyrics for acoustic guitar and electric guitar. Tablatures and chords are parodies/interpretations of the original songs. You may use it for private study, scholarship, research or language learning purposes only