» » »

Slick Shoes, Hide & Seek Tabs (ver.2)

Artists:  A B C D E F G H I J K L M N O P Q R S T U V W X Y Z # 

Hide & Seek Tabs (ver.2)

Slick Shoes Tabs
 Rating:
4/5 (4 votes)
Hide & Seek lessons Tabs too difficult? Try these video lessons and learn fast
                Hey, this is my first tab (really, it is). I’m a rhythm guitarist for my band, so this would be the rhythm part (i think) enjoy!

Intro
e|-------------------------------------------------------
B|-------------------------------------------------------
G|--7-x-----------------------7-x------------------9999--
D|--7-x-7-x-9-9-5-x-5555-7777-7-x-7-x-9-9-5-x-5555-9999-- 2x
A|--5-x-7-x-9-9-5-x-5555-7777-5-x-7-x-9-9-5-x-5555-7777--
E|------5-x-7-7-3-x-3333-5555-----5-x-7-7-3-x-3333-------

Verse pt. 1
e|---------------------------------------
B|---------------------------------------
G|--xxxxxx77-xxxxxx77-xxxxxx77-xxxx7777--
D|--xxxxxx77-xxxxxx77-xxxxxx77-xxxx7777-- x2
A|--xxxxxx55-xxxxxx55-xxxxxx55-xxxx5555--
E|---------------------------------------

Verse pt. 2
e|-----------------------------
B|-----------------------------
G|--7-x-77-7-x-77-7-x-77-7777--
D|--7-x-77-7-x-77-7-x-77-7777-- x2
A|--5-x-55-5-x-55-5-x-55-5555--
E|-----------------------------

Chorus - same as Intro

Bridge pt. 1
e|----------------------
B|----------------------
G|--7777----------------
D|--7777-9999-77777777-- x4
A|--5555-9999-77777777--
E|-------7777-55555555--

Bridge pt. 2
e|----------------------
B|----------------------
G|--7777------99999999--
D|--7777-xx77-99999999-- x3
A|--5555-xx77-77777777--
E|-------xx55-----------

Bridge pt. 3
e|---------
B|---------
G|------7--
D|--------- continue till end of song
A|--5-5----
E|---------

Ending
e|---------------------
B|---------------------
G|--77777777-----------
D|--77777777-77777777-- x2
A|--55555555-77777777--
E|-----------55555555--
            
Submit corrections

comments powered by Disqus
↑ Back to top | Slick Shoes Tabs for Hide & Seek. Lyrics for acoustic guitar and electric guitar. Tablatures and chords are parodies/interpretations of the original songs. You may use it for private study, scholarship, research or language learning purposes only