» » »

Hide & Seek Bass tabs (ver.1)

Artists:  A B C D E F G H I J K L M N O P Q R S T U V W X Y Z # 

Hide & Seek Bass tabs (ver.1)

Slick Shoes
Rating:
0/5 (0 votes)

Hard to play? Try these video lessons and learn fast.
                
Intro 

G -------------------------------------------------
D -------------------------------------------------    x2
A ---5---------------------5-5-5-5-5-4-4-4-4-4-4---
E -------5-5---7-7---3-3---------------------------


G -------------------------------------------------
D -----------------------------------5-5-5-5-5-5---
A ---5---------------------5-5-5-5-5---------------
E -------5-5---7-7---3-3---------------------------

 
G -------------------------------
D -------------------------------      x4
A ---5----4----2----0----5-5-5-5-
E -------------------------------

Verse 

G -------------------------------------------------
D -------------------------------------------------     x2
A ---5---------------------5-5-5-5-5-4-4-4-4-4-4---
E -------5-5---7-7---3-3---------------------------

G -------------------------------------------------
D -----------------------------------5-5-5-5-5-5---
A ---5---------------------5-5-5-5-5---------------
E -------5-5---7-7---3-3---------------------------

Then 

G ------------------
D ------------------   x2
A ---5----2----0----
E ------------------

Then 

G -------------------------------------------------
D -------------------------------------------------      x3
A ---5-5-5---4---2---------------------------------
E -------------------------------------------------

Outro

G -------------------------------------------------------
D -------------------------------------------------------
A ---3-3---3-3-3---3-3-3---3-3-3---3-3-3---3-3-3---------
E -------------------------------------------------------
            
Hard to play? Try these video lessons and learn fast. | Correct




comments powered by Disqus
↑ Back to top | Tablatures and chords are parodies/interpretations of the original songs. You may use it for private study, scholarship, research or language learning purposes only