» » »

Slick Shoes, Hide & Seek Tabs (ver.1)

Artists:  A B C D E F G H I J K L M N O P Q R S T U V W X Y Z # 

Hide & Seek Tabs (ver.1)

Slick Shoes Tabs
Rating:
0/5 (0 votes)
Hide & Seek lessons Tabs too difficult? Try these video lessons and learn fast
                STANDAR TUNING

 RIFF 1  X2
e-------------------------------------------------------
B-------------------------------------------------------
G-7-7---------------7-7-7-7--6-6-6-6--------------------
D-7-7--7-7--9-9--5--7-7-7-7--6-6-6-6--------------------
A-5-5--7-7--9-9--5--5-5-5-5--4-4-4-4--------------------
E------5-5--7-7--3--------------------------------------

e-------------------------------------------------------
B-------------------------------------------------------
G-7-7---------------7-7-7-7--12-12-12-12----------------
D-7-7--7-7--9-9--5--7-7-7-7--12-12-12-12----------------
A-5-5--7-7--9-9--5--5-5-5-5--10-10-10-10----------------
E------5-5--7-7--3--------------------------------------


 RIFF 2
e-------------------------------------------------------
B-------------------------------------------------------
G-7-7-7-7-7-7--6-6-6-6-6-6--4-4-4-4-4-4--12-12-12-12-12-
D-7-7-7-7-7-7--6-6-6-6-6-6--4-4-4-4-4-4--12-12-12-12-12-
A-5-5-5-5-5-5--4-4-4-4-4-4--2-2-2-2-2-2--10-10-10-10-10-
E-------------------------------------------------------
   \...PM.../     \..PM../     \..PM../ 


 RIFF 3
e-------------------------------------------------------
B-------------------------------------------------------
G-7-7-7-7-7--6-6-6-6-6--4-4-4-4-4--12-12-12-12-12-------
D-7-7-7-7-7--6-6-6-6-6--4-4-4-4-4--12-12-12-12-12-------
A-5-5-5-5-5--4-4-4-4-4--2-2-2-2-2--10-10-10-10-10-------
E-------------------------------------------------------
  *   *      *   *      *   *

 RIFF 4
e-------------------------------------------------------
B-------------------------------------------------------
G-7-7-7-7-7-7--12-12-12--11-11-11--9-9-9--11--6-6-6-----
D-7-7-7-7-7-7--12-12-12--11-11-11--9-9-9--11--6-6-6-----
A-5-5-5-5-5-5--10-10-10--9--9--9---7-7-7--9---4-4-4-----
E-------------------------------------------------------

e-------------------------------------------------------
B-------------------------------------------------------
G-7-7-7-7-7-7--12-12-12--11-11-11--9-9-9--11--6-6-6-----
D-7-7-7-7-7-7--12-12-12--11-11-11--9-9-9--11--6-6-6-----
A-5-5-5-5-5-5--10-10-10--9--9--9---7-7-7--9---4-4-4-----
E-------------------------------------------------------

e-------------------------------------------------------
B-------------------------------------------------------
G-7-7-7-7-7-7--12-12-12--11-11-11--9-9-9--11--6-6-6-----
D-X-X-X-X-X-X--X--X--X---X--X--X---X-X-X--X---X-X-X-----
A-5-5-5-5-5-5--10-10-10--9--9--9---7-7-7--9---4-4-4-----
E-------------------------------------------------------

e-------------------------------------------------------
B-------------------------------------------------------
G-7-7-7-7-7-7--12-12-12--11-11-11--9-9-9--11--6-6-6-----
D-X-X-X-X-X-X--X--X--X---X--X--X---X-X-X--X---X-X-X-----
A-5-5-5-5-5-5--10-10-10--9--9--9---7-7-7--9---4-4-4-----
E-------------------------------------------------------


 RIFF 5 X2
e-------------------------------------------------------
B-------------------------------------------------------
G-7-7-7-7--XX--4-4-4-4--7-7-7-7--XX--4-4-4-4--7-7-7-7-XX
D-7-7-7-7--XX--4-4-4-4--7-7-7-7--XX--4-4-4-4--7-7-7-7-XX
A-5-5-5-5--XX--2-2-2-2--5-5-5-5--XX--2-2-2-2--5-5-5-5-XX
E-------------------------------------------------------

 RIFF 6
e-------------------------------------------------------
B-------------------------------------------------------
G-----7-----7-----7-----7-----7-----7-----7-----7-----7-
D-------------------------------------------------------
A-5-5---5-5---5-5---5-5---5-5---5-5---5-5---5-5---5-5---
E-------------------------------------------------------

 RIFF 7
e-------------------------------------------------------
B-------------------------------------------------------
G-------------------------------------------------------
D-5p4-5p4-5p4-5p4--7p5-7p5-7p5-7p5----------------------
A-------------------------------------------------------
E-------------------------------------------------------


 RIFF 8 PM
e-------------------------------------------------------
B-------------------------------------------------------
G-7-7-7-7-7-7-7-7---------------------------------------
D-7-7-7-7-7-7-7-7---------------------------------------
A-5-5-5-5-5-5-5-5---------------------------------------
E-------------------------------------------------------

 ORDER
RIFF 1   X2
RIFF 2   X2
RIFF 3   X2
RIFF 2   X2
RIFF 4
RIFF 5   X2
RIFF 6
RIFF 7
RIFF 8

 THIS TAB IS 100% CORRECT
            
Submit corrections

comments powered by Disqus
↑ Back to top | Slick Shoes Tabs for Hide & Seek. Lyrics for acoustic guitar and electric guitar. Tablatures and chords are parodies/interpretations of the original songs. You may use it for private study, scholarship, research or language learning purposes only