» » »

Slayer, Death's Head Tabs (ver.3)

Artists:  A B C D E F G H I J K L M N O P Q R S T U V W X Y Z # 

Death's Head Tabs (ver.3)

Slayer Tabs
Rating:
0/5 (0 votes)
Death's Head lessons Tabs too difficult? Try these video lessons and learn fast
                 
Tune your guitars to C# Ab Db Gb Bb Eb 
 
PM = Palm Mute 
 
 
Tom is playing the intro, but the guitars play this. Just listen to album and you'll hear! 
 
Eb|------------------------------------| 
Bb|------------------------------------| 
Gb|------------------------------------| 
Db|------------------------------------| 
Ab|------------------------------------| 
C#|-0-0-0--0-0-0--0-0-0----------------| 
  PM..................... 
 
Guitar 1 
Ab|------------------------------------| 
C#|-0-3--0-3--0-3--0-3-----------------| 
 
Guitar 2 
Db|-0-----0-----0-------------| 
Ab|-0-----0-----0-------------| 
C#|-0-----0-----0-------------| 
 
Verse: 
  Death's pointing at your head, your minds... 
Eb|----------------------------------------| 
Bb|----------------------------------------| 
Gb|----------------------------------------| 
Db|--0--3--6--5----------------------------| 
Ab|--0--3--6--5----------------------------| 
C#|--0--3--6--5----------------------------| 
 
    I'll wake the silence in you... 
Eb|------------------------------------| 
Bb|------------------------------------| 
Gb|------------------------------------| 
Db|--0---3--2---1----3--4--------------| 
Ab|--0---1--0---1----3--4--------------| 
C#|--0----------1----3--4--------------| 
 
  Terrified by the thought that you... 
Eb|----------------------------------------| 
Bb|----------------------------------------| 
Gb|----------------------------------------| 
Db|--0--3--6--5----------------------------| 
Ab|--0--3--6--5----------------------------| 
C#|--0--3--6--5----------------------------| 
 
  I'll wake the silence in you... 
Eb|------------------------------------| 
Bb|------------------------------------| 
Gb|------------------------------------| 
Db|--0---3--2---1----3--4--------------| 
Ab|--0---1--0---1----3--4--------------| 
C#|--0----------1----3--4--------------| 
 
 
Eb|------------------------------------| 
Bb|------------------------------------| 
Gb|------------------------------------| 
Db|------------------------------------| 
Ab|----8--7777--6-6--------------------| 
C#|--0---------------------------------| 
 
  I can't remember yet someone... 
Eb|----------------------------------------| 
Bb|----------------------------------------| 
Gb|----------------------------------------| 
Db|--0--3--6--5----------------------------| 
Ab|--0--3--6--5----------------------------| 
C#|--0--3--6--5----------------------------| 
 
 
Play this under the solo 
 
Eb|----------------------------------------| 
Bb|----------------------------------------| 
Gb|----------------------------------------| 
Db|--0--3--2-2-2-2--1-1--------------------| 
Ab|--0--3--2-2-2-2--1-1--------------------| 
C#|--0--3--2-2-2-2--1-1--------------------| 
 
 After the solo they are playing this also but with an guitar effect. 
Eb|----------------------------------------| 
Bb|----------------------------------------| 
Gb|----------------------------------------| 
Db|--0--4--3-3-3-3--2-2--------------------| 
Ab|--0--4--3-3-3-3--2-2--------------------| 
C#|--0--4--3-3-3-3--2-2--------------------| 
 
   
  Death's pointing at your head, your minds... 
Eb|----------------------------------------| 
Bb|----------------------------------------| 
Gb|----------------------------------------| 
Db|--0--3--6--5----------------------------| 
Ab|--0--3--6--5----------------------------| 
C#|--0--3--6--5----------------------------| 
 
   
Eb|----------------------------------------------------------| 
Bb|----------------------------------------------------------| 
Gb|----------------------------------------------------------| 
Db|--2-2-2--9-9-9--8-8-8--5-5-5--3-3-3----0-0-0--1-1-1--2-2--| 
Ab|--2-2-2--9-9-9--8-8-8--5-5-5--3-3-3----0-0-0--1-1-1--2-2--| 
C#|--2-2-2--9-9-9--8-8-8--5-5-5--3-3-3----0-0-0--1-1-1--2-2--| 
                                      PM....................
            
Submit corrections

comments powered by Disqus
↑ Back to top | Slayer Tabs for Death's Head. Lyrics for acoustic guitar and electric guitar. Tablatures and chords are parodies/interpretations of the original songs. You may use it for private study, scholarship, research or language learning purposes only