>
 >
Death's Head

Death's Head Guitar Tabs

Slayer - Death's Head chords, tabs, tablatures, lyrics

Guitar lessons | Add/correct | Request | Top 50 tabs Artists:  A B C D E F G H I J K L M N O P Q R S T U V W X Y Z 0-9

Death's Head Guitar Tabs – Slayer

CD, Sheet music, Poster

Do you like Death's Head? Share with your friends now
TabsTabs v2Tabs v3
Tune down 1.5 steps - C# 
 
\#/ - bend bar # of steps	1h2 - hammer-on		   % - repeat bar 
/#\ - raise bar # of steps	2p1 - pull-off 
x\  - pick slide		3\1 - slide down to fret 
A.H - artificial harmonic	1/3 - slide up to fret 
/\/ - vibrate wide		*   - see note 
~~~ - vibrate			bar - depress bar slowly 
(0) - hold note			1b2 - bend up half step 
 .  - palm mute			1b3 - bend up full step 
 
 Intro 
|--------------------|-----|-----|----------------------| 
|--------------------|-----|-----|----------------------| 
|--------------------|--%--|--%--|----------------------| 
|--------------------|-----|-----|----------------------| 
|--------------------|-----|-----|----------------------| 
|-0-0-0---0-0-0------|-----|-----|-3-2-0--3-2-0--3-2-0--| 
  . . .   . . .                    . . .  . . .  . . . 
 
 1st, 2nd Verses 
 Rhy Fig 1                                        3x 
|------------------------|-------------------------|| 
|------------------------|-------------------------|| 
|------------------------|-------------------------|| 
|------------------------|-------------------------|| 
|----5--8--7-----5--8--7-|----5--8--7-----5--8--7--|| 
|-0--3--6--5--0--3--6--5-|-0--3--6--5--0--3--6--5--|| 
 
 Chorus 
|-----------|-----------|-----------|-------------| 
|-----------|-----------|-----------|-------------| 
|-----------|-----------|-----------|-------------| 
|-----------|-----------|-----------|-------------| 
|--2--------|-3----2----|--3--------|-5----6--6-5-| 
|--0--------|-----------|--1--------|-3----4--4-3-| 
                                                        2x 
|-----------|-----------|-----------|--------------------|| 
|-----------|-----------|-----------|--------------------|| 
|-----------|-----------|-----------|--------------------|| 
|-----------|-----------|-----------|--------------------|| 
|--2--------|-3----2----|--3--------|-5------------------|| 
|--0--------|-----------|--1--------|-3----3-2-0--3-2-0--|| 
                                           . . .  . . . 
 
 Interlude I (w/wah for filter) 
|-----------------|-------------------|-----------------| 
|-----------------|-------------------|-----------------| 
|-----------------|-------------------|-----------------| 
|-----------------|-------------------|-----------------| 
|-/9--9-8~~----10-|-9--9-9-9-8~----10-|-9-9-9-8~~----10-| 
|------------0----|--------------0----|------------0----| 
 
|-----------------------|------------------|-----| 
|-----------------------|------------------|-----| 
|-----------------------|------------------|--%--| 
|-------A.H-------------|------------------|-----| 
|-9-9-9--8--(8)~~----10-|-9-9-9-8~~~----10-|-----| 
|------------------0----|-------------0----|-----| 
 
|--------------------|---------------------------| 
|--------------------|---------------------------| 
|--------------------|---------------------------| 
|--------------------|----------A.H--------------| 
|-9--9-9-9-8~~----10-|-9--9-9-9--8~~--(8)/-------| 
|---------------0----|----------------------x\\--| 
| 
|--------------------|-(3)////////---------------| 
|--------------------|-(3)////////---------------| 
|--------------------|---------------------------| 
|--------------------|---------------------------| 
|-(2)----------------|---------------------------| 
|-(0)----------------|----------------------x\\--| 
 
 3rd Verse 
  w/Rhy Fig 1 - 4x 
 
Solo Rhythm (w/slight rhythm changes) 
 Rhy Fig 2                                3x 
|-------------------|----------------------|| 
|-------------------|----------------------|| 
|-------------------|----------------------|| 
|-------------------|----------------------|| 
|-4--4--4--3---2--5-|-4--4-4--4--3---2--5--|| 
|-2--2--2--1---0--3-|-2--2-2--2--1---0--3--|| 
 
 Solo - Hanneman 
                 pull up slowly                     semi 
  harm              bar                 /1\         harm 
|--------------------------------------------------------- 
|-----------------------/----------------------------19--- 
|---------------------/----------------------------------- 
|--3----------(3)---/------(3)----------(3)--------------- 
|--------------------------------------------------------- 
|--------------------------------------------------------- 
 
 
 \2.5/              /.5\   \.5/               bar   \5.5/ 
|-*-----17----17-----17-----17-----17---------------------- 
|-19----19----19-----19-----19-----19----19----\----------- * Depress bar 
|-----------------------------------------------\---------- before picking 
|------------------------------------------------\--------- 
|---------------------------------------------------------- 
|---------------------------------------------------------- 
 
                                                       w/tremolo 
  \1/   \.5/  /.5\  \1/  /.5\              bar \.5/      pedal 
|-*-----------------------------------------\--------15--------\---|-------| 
|-19-------------------------/\/\/\/\/\/--0--\-------17---------\--|-------| 
|---------------------------------------------\------------------\-|-------| 
|------------------------------------------------------------------|-------| 
|------------------------------------------------------------------|--5----| 
|------------------------------------------------------------------|--3----| 
 
 Interlude II 
|-------------------------|-------------------------|-----| 
|-------------------------|-------------------------|-----| 
|-------------------------|-------------------------|--%--| * clean tone 
|-------------------------|-------------------------|-----| 
|--*----------------------|-------------------------|-----| 
|--3--3-3-3--2----2--0--4-|--3--3-3-3--2----2--0--4-|-----| 
| 
|-------------------------|-------------------------|-----| ** tremolo pedal eff. 
|-------------------------|-------------------------|-----| w/dist. w/one gtr vol. 
|-------------------------|-------------------------|--%--| set to 0, set toggle 
|-------------------------|-------------------------|-----| switch to on. 
|-**----------------------|-------------------------|-----| 
|-h3-------p2--(2)p0---h4-|-p3----(3)p2----(2)p0-h4p|-----| 
 
|------------------------|-------------------------| 
|------------------------|-------------------------| 
|------------------------|-------------------------| 
|------------------------|-------------------------| 
|------------------------|-------------------------| 
|-3--3-3-3--2----2--0--4-|--3--3-3-3--2----2--0--4-| 
| 
|------------------------|-------------------------| 
|------------------------|-------------------------| 
|------------------------|-------------------------| 
|------------------------|-------------------------| 
|------------------------|-------------------------| 
|-3-------p2--(2)p0---h4-|-p3----(3)p2----(2)p0-h4-| 
 
 4th Verse 
  w/Rhy fig 1 4x 
 
|---------|---------****--|---------|----------------| 
|---------|------------x--|-(x)-----|----------------| *** vol. knob swell 
|---------|---------x-----|---------|----------------| 
|-----***-|---------------|---------|----------------| 
|------0--|-(0)-----------|-(0)-----|-(0)------------| **** pluck strings behind 
|------0--|-(0)-----------|-(0)-----|-(0)--------x\--| nut w/left hand 
 
Bridge 
 Rhy Fig 3 
|-------------------------|-------------------------| 
|-------------------------|-------------------------| 
|-------------------------|-------------------------| 
|-------6-6-6-5-5-5-------|-------------------4-4-4-| 
|-4-4-4-4-4-4-3-3-3-6-6-6-|-5-5-5-2-2-2-3-3-3-2-2-2-| 
|-2-2-2-------------4-4-4-|-3-3-3-0-0-0-1-1-1-------| 
                                  . . . . . . 
|-------------------------|-------------------------| 
|-------------------------|-------------------------| 
|-------------------------|-------------------------| 
|-------6-6-6-5-5-5-6-6-6-|-------4-4-4-------------| 
|-4-4-4-4-4-4-3-3-3-4-4-4-|-6-6-6-2-2-2---2/4---5-4-| 
|-2-2-2-------------------|-4-4-4-------3-----0-----| 
                                        . . . . 
 w/Rhy Fig 3 (Gtr 1) 
|-------------------------|-------------------------| 
|-------------------------|-------------------------| 
|-------------------------|-------------------------| 
|-------6-6-6-5-5-5-------|-------------------4-4-4-| 
|-4-4-4-4-4-4-3-3-3-6-6-6-|-5-5-5-2-2-2-3-3-3-2-2-2-| 
|-2-2-2-------------4-4-4-|-3-3-3-0-0-0-1-1-1-------| 
                                  . . . . . . 
|-------------------------|---------------------------| 
|-------------------------|---------------------------| 
|-------------------------|---------------------------| 
|-------6-6-6-5-5-5-6-6-6-|-------4-4-4---------------| 
|-4-4-4-4-4-4-3-3-3-4-4-4-|-6-6-6-2-2-2--3------6-----| 
|-2-2-2-------------------|-4-4-4----------2-2/---5-4-| 
                                           . .    . . 
|-------------------------||-------------------------| 
|-------------------------||-------------------------| 
|-------------------------||-------------------------| 
|-------------------------||-------------------------| 
|-------------------7-6-7-||-------------------------| 
|-------------------5-4-5-||-------------------x\----| 
|(w/wah for filter) 
|-------------------------||-------------------------| 
|-------------------------||-------------------------| 
|-------------------------||-------------------------| 
|-------6-6-6-5-5-5-------||-------6-6-6-5-5-5-------| 
|-4-4-4-4-4-4-3-3-3-7-6-7-||-4-4-4-4-4-4-3-3-3-7-6-7-| 
|-2-2-2-------------5-4-5-||-2-2-2-------------5-4-5-| 
 
 Outro 
|-------------------|-------------------|-------------------| 
|-------------------|-------------------|-------------------| 
|-------------------|-------------------|-------------------| 
|-------------------|-------------------|-------------------| 
|--------4-3--------|-------------------|--------4-3--------| 
|-2--0-2------0-2/6-|-5--0-2-3-2--3-5-6-|-0--0-2------0-2-3-| 
     . .      . . .      . . .    . . .      . .      . . . 
|----------------------|-------------------|-------------------| 
|----------------------|-------------------|-------------------| 
|----------------------|-------------------|-------------------| 
|------------------2-1-|-------------------|-------------------| 
|------------2-1-3-----|--------4-3--------|-------------------| 
|-2--3-2-0-3-----------|-2--0-2------0-2/6-|-5--0-2-3-2--3-5-6-| 
     . . . . . .            . .      . . .      . . .    . . . 
|-------------------|----------| 
|-------------------|----------| 
|-------------------|----------| 
|-------------------|----------| 
|--------4-3--------|----------| 
|-0--0-2------0-2-3-|-2--3-2-0-| 
     . .      . . .      . . . 
 
|-------------------------|-----------|| 
|-------------------------|-----------|| 
|-------------------------|-----------|| 
|-------------------------|-----------|| 
|---2-1---5-4---4-3---3-2-|--5--4--2--|| 
|-3-----6-----5-----4-----|--3--2--0--|| 
| . . . . . . . . . . . . 
|-------------------------|-----------|| 
|-------------------------|-----------|| 
|-------------------------|-----------|| 
|---------5-4---4-3---3-2-|-----------|| 
|---2-1-6-----5-----4-----|--5--4--2--|| 
|-3-----------------------|--3--2--0--||





Comments


Popular Slayer tabs & chords
Disciple Bass Tabs
Disintegration 3 Bass Tabs
Divine Intervention Drum Tabs
Raining Blood Drum Tabs
Born Of Fire 1 Tabs
Born On Fire Tabs
Mandatory Suicide Tabs
Not Of This God 1 Tabs
Praise Of Death 1 Tabs
Supremist Intro Tabs


Song lyrics



↑ Back to top | Tablatures and chords are parodies/interpretations of the original songs. You may use it for private study, scholarship, research or language learning purposes only
© 2014 AZChords.com Contact us | Privacy policy | DMCA | Add/correct tabs | Request tabs | Top 50 tabs