>
 >
Behind The Crooked Cross 1

Behind The Crooked Cross 1 Guitar Tabs

Slayer - Behind The Crooked Cross 1 chords, tabs, tablatures, lyrics

Guitar lessons | Add/correct | Request | Top 50 tabs Artists:  A B C D E F G H I J K L M N O P Q R S T U V W X Y Z 0-9

Behind The Crooked Cross 1 Guitar Tabs – Slayer

CD, Sheet music, Poster

Do you like Behind The Crooked Cross 1? Share with your friends now
Bass TabsBass Tabs v2Drum TabsTabsTabs v2
SLAYER - BEHIND THE CROOKED CROSS
(South Of Heaven, 1988)

Key
= after note = vibrato
^ after note = heavy vibrato 
\ = slide down
/ = slide up
+ = tap
h = hammer
p = pull
n = natural harmonic
s = pinching harmonic (squeal)
* = tremolo pick
t = trill
b = bend
|-3-| = triplet

n number above the tab = play the first part then the first finishing part
			 play the first part a second time and then play the second finishing part
			 etc.

Tune Down 1/2 Step

Riff 1

Eb -----------------------------------------------------------------
Bb -----------------------------------------------------------------
Gb -----------------------------------------------------------------
Db -----------------------------------------------------------------
Ab -----------------------------------------------------------------
Eb -2-2-2-2-2-2-2-2-2-2-2-2-2-2-2-2-2-2-2-2-2-2-2-2-2-2-2-2-2-2-2-2-

Riff 2

Eb ----------------------------------------------------------------
Bb ----------------------------------------------------------------
Gb -------------------------------------------------------------3--
Db -------------------------------------------------------------3--
Ab -----3-----2-----------------4-5-----3-----2-----------------1--
Eb -2-2---2-2---2-2-4-2-2-3-2-2-----2-2---2-2---2-2-4-2-2-3-2-2----

Riff 2A

Eb ----------------------------------------------------------------
Bb ----------------------------------------------------------------
Gb -------------------------------------------------------------3--
Db -----2-----1-------------------------2-----1-----------------3--
Ab -----------------3-----2-----4-5-----------------3-----2-----1--
Eb -2-2---2-2---2-2---2-2---2-2-----2-2---2-2---2-2---2-2---2-2----

Riff 3

Eb ------------------------
Bb ------------------------
Gb ------------------------
Db ------------------------
Ab -3---2------------------
Eb ---------5---4---3-4-3--

Riff 3A

Eb ------------------------
Bb ------------------------
Gb ------------------------
Db -6---5------------------
Ab ---------7---6---5-6-5--
Eb ------------------------

Riff 3B

Eb ------------------------
Bb ------------------------
Gb -6---5------------------
Db ---------7---6---5-6-5--
Ab ------------------------
Eb ------------------------

Riff 4

Eb --------------------------------------------------------
Bb --------------------------------------------------------
Gb --------------------------------------------------------
Db -----------------5-6-5----------------------------------
Ab -3---2-----------5-6-5----------------------------------
Eb ---------5---4---3-4-3--2-2-2-2-2-2-2-2-2-2-2-2-2-2-2-2-

Riff 4A

Eb --------------------------------------------------------
Bb --------------------------------------------------------
Gb --------------------------------------------------------
Db -6---5-----------5-6-5----------------------------------
Ab ---------7---6---5-6-5----------------------------------
Eb -----------------3-4-3--2-2-2-2-2-2-2-2-2-2-2-2-2-2-2-2-

Riff 5

Eb ------------------------------
Bb ------------------------------
Gb ------------------------------
Db -----------------------7-7-6--
Ab -----4-----4---3---3---7-7-6--
Eb -2-2---2-2---2---2---2-5-5-4--

Riff 5B

Eb ------------------------------
Bb ------------------------------
Gb -----6-----6---5---5----------
Db -----6-----6---5---5---7-7-6--
Ab -----4-----4---3---3---7-7-6--
Eb -2-2---2-2---2---------5-5-4--

Order

Riff 1 x 5
Riff 2 x 2
Riff 3/3A x 1
Riff 2 x 4
Riff 4 x 3
Riff 3 x 1
Riff 2 x 6
Riff 4 x 3
Riff 3 x 1
Solo over Riff 5 x 8
Riff 5 x 2
Riff 5/5A x 2
Solo over Riff 5 x 8
Riff 3/3A x 1
Riff 2 x 4
Riff 4 x 2
Riff 4/4A x 1
Riff 3/3B x 1





Comments


Popular Slayer tabs & chords
Can't Stand You Bass Tabs
Deaths Head 2 Bass Tabs
Evil Has No Boundaries Bass Tabs
God Sends Death Bass Tabs
Epidemic Tabs
Hell Awaits 2 Tabs
I Hate You 4 Tabs
New Faith 1 Tabs
New Faith 4 Tabs
Seasons In The Abyss6:15 Tabs


Song lyrics



↑ Back to top | Tablatures and chords are parodies/interpretations of the original songs. You may use it for private study, scholarship, research or language learning purposes only
© 2014 AZChords.com Contact us | Privacy policy | DMCA | Add/correct tabs | Request tabs | Top 50 tabs