» » »

Slayer, Behind The Crooked Cross Tabs (ver.3)

Artists:  A B C D E F G H I J K L M N O P Q R S T U V W X Y Z # 

Behind The Crooked Cross Tabs (ver.3)

Slayer Tabs
 Rating:
4/5 (4 votes)
Behind The Crooked Cross lessons Tabs too difficult? Try these video lessons and learn fast
                (Solo)
slayer


SOLO 1
  2 TIMES     PLAY 4 TIMES
eb-16B-16B~~-*---16H20P16-*-----------------------------------------------------*
Bb-19B-19B~~-*19----------*19-17-19B--------------------------------------------*
Gb-----------*------------*----------------------------------------------12-14B-*
Db-----------*------------*----------------------------------12-14-12-14--------*
Ab-----------*------------*----------------------12-14-12-14--------------------*
Eb-----------*------------*----------12-15-12-15--------------------------------*

                                     pm .   .  .  .  .  .  .  .  .  .  .

eb----------------------------12-14-15-14-12----------------------*
Bb-------------12-13-12-13-15----------------15-12-13-12-13-------*
Gb-12-14-12-14----------------------------------------------14\---*
Db----------------------------------------------------------------*
Ab----------------------------------------------------------------*
Eb----------------------------------------------------------------*

SOLO 2
     I'M NOT SURE IF THIS SOLO IS RIGHT

       NOTE: IF THIS DOESNT SOUND RIGHT TRY AH
eb-----18B~~----------------------------------------8-9~~--14-15-17-15-14H15P14-*
Bb-----23B~~---------------------------------7-8-10-----------------------------*
Gb----------------------------8-9~~---8-9-11------------------------------------*
Db--------------------9-10-12---------------------------------------------------*
Ab---0-------12-13-15-----------------------------------------------------------*
Eb-0----------------------------------------------------------------------------*

eb-15P14-17-15-14--------------------*
Bb----------------17-14H15P14-14-----*
Gb-------------------------------16B-*
Db-----------------------------------*
Ab-----------------------------------*
Eb-----------------------------------*

SOLO 3
                 4 TIMES
                  BAR
eb--------------*---------*----------------------------------------------------17-18-19B-*
Bb--------------*---------*----------17H18P17-18-17-18-17-------------17-18-20-----------*
Gb-7B------7B~~-*-0H5H7P5-*-7/20B-20----------------------20-17-18-20--------------------*
Db--------------*---------*--------------------------------------------------------------*
Ab--------------*---------*--------------------------------------------------------------*
Eb--------------*---------*--------------------------------------------------------------*



SOLO 4

   PLAY 4 TIMES                                     2 TIMES  2 TIMES  2
TIMES
eb----16-19-16-19-*--------------------------------*--------*--------*--------*
Bb-18-------------*-19B-19B~~-16-19-16-19----------*--------*--------*--------*
Gb----------------*-----------------------18-16-18B*--------*--------*--------*
Db----------------*--------------------------------*--------*--------*12-13-15*
Ab----------------*--------------------------------*--------*12-13-15*--------*
Eb----------------*--------------------------------*12-13-15*--------*--------*

                                                   pm.  .  .  .  .  .
.  .  .

eb-------------------12-15--22B-22B-22B-22B-22B-22B-22B-22B-22B\-*
Bb----------12-13-15---------------------------------------------*
Gb-12-13-15------------------------------------------------------*
Db---------------------------------------------------------------*
Ab---------------------------------------------------------------*
Eb---------------------------------------------------------------*
            
Submit corrections

comments powered by Disqus
↑ Back to top | Slayer Tabs for Behind The Crooked Cross. Lyrics for acoustic guitar and electric guitar. Tablatures and chords are parodies/interpretations of the original songs. You may use it for private study, scholarship, research or language learning purposes only