>
 >
Tuyo Na'ng Damdamin

Tuyo Na'ng Damdamin Guitar Tabs

Silent Sanctuary - Tuyo Na'ng Damdamin chords, tabs, tablatures, lyrics

Guitar lessons | Add/correct | Request | Top 50 tabs Artists:  A B C D E F G H I J K L M N O P Q R S T U V W X Y Z 0-9

Tuyo Na'ng Damdamin Guitar Tabs – Silent Sanctuary

CD, Sheet music, Poster

Do you like Tuyo Na'ng Damdamin? Share with your friends now
ChordsTabsTabs v2Tabs v3
Album:Kami Napo Muna Ulit

For your any comments,questions or suggestions,just post a comment or PM me.


Farewell Message:

 This is my last tab here in the Philippines because we have migrated here in Canada to
start a new better life.
Once again,I would like to thank you all specially my friend Yahshua.Tnx bro for
all of your support...

michaelwalter,f1f2,junerobert,funken,jordankeno,paul21,gakkung,guiltkill,boneslee,
the_wuds,17thinvictus thank you very much.....

 My bandmates Eduardo Capistrano,Kenjiro Uezono,Aeroll Cayetano and Testa Dino,I will
never forget my 1st and finest band.love you all.
I will miss our gigs and gags shows....

 For my X Gf Chamell,I love you so much but I'm very very sorry,,I'm not the right one for
you.However far away,I will always
love you..........

 For my friends out there in Montalban Rizal and Our Lady of Fatima University...Goodluck!


Notes:Just listen properly to the song to get the right timing of strumming patterns.

Guitar Legend:
x - dead string

Guitar Tuning:Standardd(Normal)

Intro:
e|--0--------1---------|
B|--1--------1---------|
G|--0--------2---------|
D|--2--------3---------|
A|--3--------3---------|
E|--0--------1---------|


Verse 1:
   Minsan   pilitin  mong     Uminit   ang damdamin    Di      susunod  at   lambing
e|-0--------3--------2--------0--------1---------------0-------0--------1----3------|
B|-1--------3--------3--------1--------1---------------1-------1--------1----3------|
G|-0--------0--------4--------2--------2---------------0-------2--------2----0------|
D|-2--------0--------4--------2--------3---------------2-------2--------3----0------|
A|-3--------2--------2--------0--------3---------------3-------0--------3----2------|
E|-0--------3--------x--------x--------1---------------0-------x--------1----3------|

Verse 2:
   Minsan   mapi  gil      mapansin   talagang        naii   wan  na   mamahal
e|-0--------3-----2--------0----------1---------------0------0----1----0-------0-|
B|-1--------3-----3--------1----------1---------------1------1----1----1-------1-|
G|-0--------0-----4--------2----------2---------------0------2----2----0-------3-|
D|-2--------0-----4--------2----------3---------------2------2----3----2-------2-|
A|-3--------2-----2--------0----------3---------------3------0----1----3-------3-|
E|-0--------3-----x--------x----------1---------------0------x----1----0-------0-|

Chorus:
   At kahit  madaya         Aminin sa   Maibubuga
e|-1---------0-------0-0----1-----------3--------|
B|-1---------1-------1-2----1-----------3--------|
G|-2---------0-------3-3----2-----------0--------|
D|-3---------2-------2-2----3-----------0--------|
A|-3---------3-------3-3----3-----------2--------|
E|-1---------0-------0-x----1-----------3--------|

Verse 3:
   Parang   na  nagda  dala   at liwanag      na   uubos    rin  magdamag
e|-0--------3---2------0-------------1---------------0----0--------1----0-------|
B|-1--------3---3------1-------------1---------------1----1--------1----1-------|
G|-0--------0---4------2-------------2---------------0----2--------2----2-------|
D|-2--------0---4------2-------------3---------------2----2--------3----0-------|
A|-3--------2---2------0-------------3---------------3----0--------3----3-------|
E|-0--------3---x------x-------------1---------------0----x--------1----0-------|

Violin and Cello Instrumentals:
e|-0--4---2----0----1-----------0----0-----1----0-------|
B|-1--4---3----1----1-----------1----1-----1----2-------|
G|-0--0---4----2----2-----------0----2-----2----2-------|
D|-2--0---4----2----3-----------2----2-----3----2-------|
A|-3--2---2----0----3-----------3----0-----3----0-------|
E|-0--3---x----x----1-----------0----x-----1----x-------|

Verse 2(On Higher Notes):
   Minsan  mapi gil   mapansin    talagang    ma  iiwan na pag mahal
e|-2-------4----0-----2-----------3-----------2---2-----0--0---2----|
B|-3-------3----2-----3-----------3-----------2---3-----0--0---3----|
G|-2-------6----2-----4-----------0-----------2---4-----1--2---2----|
D|-0-------6----2-----4-----------0-----------4---4-----2--2---0----|
A|-x-------4----0-----2-----------2-----------4---2-----2--2---0----|
E|--------------x-----------------3-----------2---------0--0--------|

Chorus(On Higher Notes):
   At kahit  madaya         Aminin sa   Maibubuga
e|-3---------2-------0-0----3-----------0--------|
B|-3---------3-------2-3----3-----------2--------|
G|-0---------2-------2-2----0-----------2--------|
D|-0---------0-------0-0----0-----------2--------|
A|-2---------0-------x-x----2-----------0--------|
E|-3---------x-------x-x----3-----------x--------|


Verse 4:
   Di na   o    balik dating      kahapon   Pilit ma'y  tuyo damdamin
e|-2-------4----0-----2-----------3---------2-----2-----0--0---2----|
B|-3-------3----2-----3-----------3---------2-----3-----0--0---3----|
G|-2-------6----2-----4-----------0---------2-----4-----1--2---2----|
D|-0-------6----2-----4-----------0---------4-----4-----2--2---0----|
A|-x-------4----0-----2-----------2---------4-----2-----2--2---0----|
E|--------------x-----------------3---------2-----------0--0--------|

Outro:
   Tuyo   damdamin
e|-0------3-------|
B|-2------3-------|
G|-2------0-------| 4x
D|-2------0-------|
A|-0------2-------|
E|--------3-------|


e|-1------3-------|
B|-1------3-------|
G|-3------0-------| 6x
D|-3------0-------|
A|-1------2-------|
E|--------3-------|


Play Intro:

End..


Tuyo Nang Damdamin Lyrics:

Verse 1:
Minsan kahit na pilitin mong uminit ang damdamin
'Di siya susunod at 'di maglalambing

Verse 2:
Minsan 'di mo na mapigil mapansin
Na talagang wala nang naiiwan na pagmamahal

Chorus:
At kahit na anong gawin
'Di mo na mapilita at madaya
Aminin sa sarili mo
Na wala ka nang mabubuga

Verse 3:
Parang 'sang kandila nanagdadala ng ilaw at liwanag
Nauubos rin sa magdamag


Instrumentals(Cello and Violin):

Repeat Verse 2:

Repeat Chorus:

Verse 4
'Di na madaig o mabalik ang dating matamis na kahapon
Pilit ma'y tuyo na'ng damdamin.

Tuyo nang damdamin





Comments


Popular Silent Sanctuary tabs & chords
Abot Langit Chords
Hiling 3 Chords
Ikaw Lamang 3 Chords
Wala Na Chords
Ingat Ka 3 Tabs
Pink 5 Tabs
Rebound Tabs
Hiling Ukulele
Maalaala Mo Sana Ukulele
Rebound Ukulele


Song lyrics



↑ Back to top | Tablatures and chords are parodies/interpretations of the original songs. You may use it for private study, scholarship, research or language learning purposes only
© 2014 AZChords.com Contact us | Privacy policy | DMCA | Add/correct tabs | Request tabs | Top 50 tabs