» » »

Autograph Tabs (ver.3)

Artists:  A B C D E F G H I J K L M N O P Q R S T U V W X Y Z # 

Autograph Tabs (ver.3)

Sick Of Sarah
Rating:
4/5 (1 vote)

Hard to play? Try these video lessons and learn fast.
                I'm pretty sure these are the right tabs. 
I watched Abisha playing it in a video so it should be somewhat accurate. 
Enjoy (: 


Verse 1:
e--2---3---5-------------|
B--3---3---5-------------|
G--4---4---6-------------|
D--4---5---7-------------|
A--2---5---7-------------|
E--2---3---5-------------|
you had a heart of gold
you had a heart of stone
i had a heart attack
i pulled you in
you pushed me back
you're not so innocent
you're just a hypocrite
now turn me on
let me loose
blow me off
what's your excuse


Chorus:
e--3---2---0---2----------|
B--3---2---2---3----------|
G--0---2---2---4----------|
D--0---0---2---4----------|
A--2---0---0---2----------|
E--3---x---0---2----------|
I'm not messing around
i want your autograph
i wanna touch you
yeah
i'm not messing around
messing around
i want your autograph
e--1---2--|
B--2---3--|
G--3---4--| x8
D--3---4--|
A--1---2--|
E--1---2--|


Verse 2:
e--2---3---5-------------|
B--3---3---5-------------|
G--4---4---6-------------|
D--4---5---7-------------|
A--2---5---7-------------|
E--2---3---5-------------|
your bones are pliable
so undeniable
cannot commit to words
cuz words are indescribable
if i had my way
i'd eat you everyday
now come a little closer
listen to the words i got to say


Chorus:
e--3---2---0---2----------|
B--3---2---2---3----------|
G--0---2---2---4----------|
D--0---0---2---4----------|
A--2---0---0---2----------|
E--3---x---0---2----------|
i'm not messing around
i want your autograph
i wanna touch you
yeah
i'm not messing around
messing around
i want your autograph
and you'll just screw with my soul
your words they twist and fold
i need to learn to swallow them whole
swallow them whole
i want your autograph
e--1---2--|
B--2---3--|
G--3---4--| x8
D--3---4--|
A--1---2--|
E--1---2--|


e--2----5---3----------|
B--3----5---3----------|
G--4----6---4----------|
D--4----7---5----------|
A--2----7---5----------|
E--2----5---3----------|
can't quite sleep in the middle of the night
you're touching yourself
if you could see everything that i see
i can't quite take this
i can't quite break this
you can't quite take this
you can't quite break this

Chorus
            
Hard to play? Try these video lessons and learn fast. | Correct




comments powered by Disqus
↑ Back to top | Tablatures and chords are parodies/interpretations of the original songs. You may use it for private study, scholarship, research or language learning purposes only