» » »

Sick Of Sarah, Autograph Tabs (ver.2)

Artists:  A B C D E F G H I J K L M N O P Q R S T U V W X Y Z # 

Autograph Tabs (ver.2)

Sick Of Sarah Tabs
 Rating:
3.8/5 (5 votes)
Autograph lessons Tabs too difficult? Try these video lessons and learn fast
1
                Verses:

    (x4)  (x4) (x4)
e|-------------------------------------------------------------------|
B|-------------------------------------------------------------------|
G|----4--------------------------------------------------------------|
D|----4-----5----7---------------------------------------------------|
A|----2-----5----7---------------------------------------------------|
E|----------3----5---------------------------------------------------|


Chorus:
(Let the chords ring - G, D, and A)

     (G)  (D)  (A)             (G)  (D)  (A)
e|----3----2----0---------------3----2----0---------------|----------|
B|----0----3----3---------------0----3----3---------------|----------|
G|----0----2----3---4--4--4-----0----2----3---4--4--4--4--|--3/4-----|- last
D|----0----0----3---4--4--4-----0----0----3---4--4--4--4--|--3/4-----|  part
A|----2----0----0---2--2--2-----2----0----0---2--2--2--2--|--1/2-----|   x8
E|----3----0----0---------------3----0----0---------------|----------|

Chorus riff:
e|------------------------------------7-----------------------------|
B|--------------------------------7-8----7-7-7/8--------------------|
G|-----7----------7---------7--------------------7-9-7-----7-9------|
D|-7/9---7--7-7/9-----7-7/9----7-9---------------------7/9-----7-9--|
A|------------------------------------------------------------------|
E|------------------------------------------------------------------|

'Can't quite sleep in the middle of the night..' 
    (x16) (x8) (x8)
e|----------------------|
B|----------------------|
G|---4------------------|
D|---4-----7----5-------|
A|---2-----7----5-------|
E|---------5----3-------|
            
Submit corrections

comments powered by Disqus
↑ Back to top | Sick Of Sarah Tabs for Autograph. Lyrics for acoustic guitar and electric guitar. 1 Tablatures and chords are parodies/interpretations of the original songs. You may use it for private study, scholarship, research or language learning purposes only