» » »

Sick Of Sarah, Autograph Tabs (ver.1)

Artists:  A B C D E F G H I J K L M N O P Q R S T U V W X Y Z # 

Autograph Tabs (ver.1)

Sick Of Sarah Tabs
 Rating:
4/5 (5 votes)
Autograph lessons Tabs too difficult? Try these video lessons and learn fast
1
                -------------------------------------------------------------------------------
-------------------------------------------------------------------------------

Tuning: Standard

Listen to the song to figure out the correct strumming pattern.

Verses:
You had a heart of gold, you had a heart of stone..
    (x4)  (x4) (x4)
e|---------------------------------------------------------------------------|
B|---------------------------------------------------------------------------|
G|----4----------------------------------------------------------------------|
D|----4-----5----7-----------------------------------------------------------|
A|----2-----5----7-----------------------------------------------------------|
E|----------3----5-----------------------------------------------------------|


Chorus:
(Let the chords ring out - G, D, and A)
And i'm not messing around I want your autograph, I want to touch you, yeah..
     (G)  (D)  (A)             (G)  (D)  (A)
e|----3----2----0---------------3----2----0----------------------------------|
B|----0----3----3---------------0----3----3----------------------------------|
G|----0----2----3---------------0----2----3----------------------------------|
D|----0----0----3---4--4--4-----0----0----3---4--4--4--4---------------------|
A|----2----0----0---4--4--4-----2----0----0---4--4--4--4--3--4-4--3--4-4-----|
E|----3----0----0---2--2--2-----3----0----0---2--2--2--2--1--2-2--1--2-2-----|

Can't quite sleep in the middle of the night.. (palm mute) Take off palm mute for the 
"You can't quite take this, You can't quite break this"
    (x16) (x8) (x8)
e|---------------------------------------------------------------------------|
B|---------------------------------------------------------------------------|
G|---4-----------------------------------------------------------------------|
D|---4-----7----5------------------------------------------------------------|
A|---2-----7----5------------------------------------------------------------|
E|---------5----3------------------------------------------------------------|

Same chords are repeated throughout.

Lyrics:
you had a heart of gold
you had a heart of stone
i had a heart attack
i pulled you in?
you pushed me back
you’re not so innocent
you’re just a hypocrite
now turn me on
let me loose
blow me off
what’s you’re excuse

I’m not messing around
i want your autograph
i wanna touch you?
yeah
i’m not messing around
messing around
i want your autograph

your bones are pliable
so undeniable
cannot commit to words
words are indescribable
if i had my way
i’d eat you everyday
come a little closer
listen to the words i have to say

i’m not messing around
i want your autograph
i wanna touch you
yeah
i’m not messing around
messing around
i want your autograph
and you’ll just screw with my soul
your words they twist and fold
i need to learn to swallow them whole
swallow them whole
i want your autograph

can’t quite sleep in the middle of the night
you’re touching yourself
if you could see everything that i see
i can’t quite take this
i can’t quite break this
you can’t quite take this
you can’t quite break this

i’m not messing around
i want your autograph
i wanna touch you
touch you well
yeah
not messing around
i want your autograph
and you’ll just screw with my soul
your words they twist and fold
i need to learn to swallow them whole
swallow you whole
i want your autograph

************************************

| /   slide up
| \   slide down
| h   hammer-on
| p   pull-off
| ~   vibrato
| +   harmonic
| x   Mute note
| b   Bend
| pb  Pre-bend
| br  Bend release
| pbr Pre-bend release
| brb Bend release bend

************************************
            
Submit corrections

comments powered by Disqus
↑ Back to top | Sick Of Sarah Tabs for Autograph. Lyrics for acoustic guitar and electric guitar. 1 Tablatures and chords are parodies/interpretations of the original songs. You may use it for private study, scholarship, research or language learning purposes only