>
 >
Oh! Emetophobia!

Oh! Emetophobia! Guitar Tabs

Showbread - Oh! Emetophobia! chords, tabs, tablatures, lyrics

Guitar lessons | Add/correct | Request | Top 50 tabs Artists:  A B C D E F G H I J K L M N O P Q R S T U V W X Y Z 0-9

Oh! Emetophobia! Guitar Tabs – Showbread

CD, Sheet music, Poster

Do you like Oh! Emetophobia!? Share with your friends now
TabsTabs v2Tabs v3
\/\/\/\/\/\/\/\/\/\/\/\/\/\/\/\/\/\/\/\/\/\/\/\/\/\/\/\/\/\/\/\/\/\/\/\/\/\/
-------------------------------OH!-EMETOPHOBIA------------------------------
--------------------------------by-SHOWBREAD--------------------------------
----------------------------tabbed-by-Gsus-Freak----------------------------
/\/\/\/\/\/\/\/\/\/\/\/\/\/\/\/\/\/\/\/\/\/\/\/\/\/\/\/\/\/\/\/\/\/\/\/\/\/\
-----------------------------------legend-----------------------------------
                               ~ - vibrato
                               b - bend
                               r - return bend
                               / - slide up
                               \ - slide down
                               s - pick slide
                              pm - palm mute
                               x - mute
----------------------------------------------------------------------------
VERSE
e|----------------------------------|
b|----------------------------------|
g|333-----333-----333-----333-------|
d|333-5-X-333-5-X-333-5-X-333-5-----|
a|111-5-X-111-5-X-111-5-X-111-5-----|
e|----3-X-----5-X-----3-X-----3---/-| 

e|----------------------------------------|   e|------------------------|
b|----------------------------------------|   b|------------------------|
g|-------666--------555--------666--------|   g|555---------666---------|
d|555555-666-333333-555-555555-666-333333-|   d|555-5-x5x5x-666-3-x3x3x-|
a|555555-444-333333-333-555555-444-333333-|   a|333-5-x5x5x-444-3-x3x3x-|
e|333333-----111111-----333333-----111111-|x1 e|----3-x3x3x-----1-x1x1x-|x2

CHORUS
e|---------------------------------------------------------------------|
b|---------------------------------------------------------------------|
g|7777-5555-3333------7777-5555-----------7777-5555-3333---------------|
d|7777-5555-3333-5555-7777-5555-3333-5555-7777-5555-3333-5555-77777777-|
a|5555-3333-1111-5555-5555-3333-3333-5555-5555-3333-1111-5555-77777777-|
e|---------------3333-----------1111-3333----------------3333-55555555-|

e|-------|
b|-------|
g|-------|
d|3333-2-|
a|3333-2-|
e|1111-0-|

POSTCHORUS
e|-------------------------------|
b|-------------------------------|
g|333-----333-----333------------|
d|333-6-x-333-6-x-333-6-x-3333-2-|
a|111-6-x-111-6-x-111-6-x-3333-2-|
e|----4-x-----4-x-----4-x-1111-0-|

VERSE
e|----------------------------------|
b|----------------------------------|
g|333-----333-----333-----333-------|
d|333-5-X-333-5-X-333-5-X-333-5-----|
a|111-5-X-111-5-X-111-5-X-111-5-----|
e|----3-X-----5-X-----3-X-----3---s-| 

e|----------------------------------------|   e|---------------------------|
b|----------------------------------------|   b|------------------------15~|
g|-------666--------555--------666--------|   g|555---------666------------|
d|555555-666-333333-555-555555-666-333333-|   d|555-5-x5x5x-666-3-x3x3x----|
a|555555-444-333333-333-555555-444-333333-|   a|333-5-x5x5x-444-3-x3x3x----|
e|333333-----111111-----333333-----111111-|x1 e|----3-x3x3x-----1-x1x1x----|
                                                                        (x2)
CHORUS

e|---------------------------------------------------------------------|
b|---------------------------------------------------------------------|
g|7777-5555-3333------7777-5555-----------7777-5555-3333---------------|
d|7777-5555-3333-5555-7777-5555-3333-5555-7777-5555-3333-5555-77777777-|
a|5555-3333-1111-5555-5555-3333-3333-5555-5555-3333-1111-5555-77777777-|
e|---------------3333-----------1111-3333----------------3333-55555555-|

e|-------|
b|-------|
g|-------|
d|3333-2-|
a|3333-2-|
e|1111-0-|

BRIDGE
e|---------------------------------------|
b|---------------------------------------|
g|333-----333-----333--------------------|
d|333-X-6-333-X-6-333-6-3333-2222--------|
a|111-X-6-111-X-6-111-6-3333-2222-7~7~7~-|
e|----X-4-----X-4-----4-1111-0000-------\|

e|-----------------------------------------------------|
b|-----------------------------------------------------|
g|-------------------------------------------------3b--|
d|-22----22----22----2---2---2---22----22----22------5-|
a|-22----22----22----2---2---2---22----22----22--------|
e|-00-3b-00-3b-00-3b-0-3-0-3-0-\-00-3b-00-3b-00-3b-----|x2
                                                    
e|------------------------------------------------11---|
b|------------------------------------------------11b-8|
g|-----------------------------------------------------|
d|-----------------------------------------------------|
a|-----------------------------------------------------|
e|-----------------------------------------------------|x2

e|----------------------|        e|--------------xxxx-|
b|----------------------|        b|--------------xxxx-|
g|----------------------|        g|--------------xxxx-|
d|----------------------|        d|--------------xxxx-|
a|----------------------|        a|--------------xxxx-|
e|6b-00-5b-00-3b-000000-|x3 then e|6b-00-5b-00-3-xxxx-|

e|-----------------------------------|
b|-----------------------------------|
g|3-2------3-2------3-2------3-2-----|
d|3-2-5-2--3-2-5-2--3-2-5-2--3-2-5---|
a|1-0-5-2--1-0-5-2--1-0-5-2--1-0-5---|
e|----3-0------3-0------3-0------3-/-| 

e|--------------------------------------|
b|--------------------------------------|
g|3x2x------3x2x------3x2x------3x2x----|
d|3x2x-5-2--3x2x-5-2--3x2x-5x2--3x2x-5x-|
a|1x0x-5-2--1x0x-5-2--1x0x-5x2--1x0x-5x-|
e|-----3-0-------3-0-------3x0-------3x-| 

VERSE
e|--------------------------------------------|   
b|--------------------------------------------|   
g|555--------666--------555--------666--------|   
d|555-555555-666-333333-555-555555-666-333333-|   
a|333-555555-444-333333-333-555555-444-333333-|   
e|----333333-----111111-----333333-----111111-|x1 

e|------------------------|   e|---|
b|------------------------|   b|15~|
g|555---------666---------|   g|---|
d|555-5-x5x5x-666-3-x3x3x-|   d|---|
a|333-5-x5x5x-444-3-x3x3x-|   a|---|
e|----3-x3x3x-----1-x1x1x-|x2 e|---|

CHORUS
e|---------------------------------------------------------------------|
b|---------------------------------------------------------------------|
g|7777-5555-3333------7777-5555-----------7777-5555-3333---------------|
d|7777-5555-3333-5555-7777-5555-3333-5555-7777-5555-3333-5555-77777777-|
a|5555-3333-1111-5555-5555-3333-3333-5555-5555-3333-1111-5555-77777777-|
e|---------------3333-----------1111-3333----------------3333-55555555-|

e|-------|
b|-------|
g|-------|
d|3333-2-|
a|3333-2-|
e|1111-0-|

ALTERED POSTCHORUS/OUTRO
e|-----------------------------|
b|-----------------------------|
g|333-----333-----333----------|
d|333-6-x-333-6-x-333-6-x-3333-|
a|111-6-x-111-6-x-111-6-x-3333-|
e|----4-x-----4-x-----4-x-1111-|x3

e|------|
b|------|
g|------|
d|22222-|
a|22222-|
e|00000-|

MAY RAW ROCK KILL YOU FOREVER AND EVER... AMEN.





Comments


Popular Showbread tabs & chords
The Sky Alpha Chords
Deliverance Tabs
Dinosaur Bones Tabs
Missing Wife 3 Tabs
Mouth Like A Magazine 2 Tabs
Mouth Like A Magazine 4 Tabs
Oh! Emetophobia! 2 Tabs
The Sky Tabs
The Sky Alpha Tabs
Age Of Reptiles Ukulele


Song lyrics



↑ Back to top | Tablatures and chords are parodies/interpretations of the original songs. You may use it for private study, scholarship, research or language learning purposes only
© 2014 AZChords.com Contact us | Privacy policy | DMCA | Add/correct tabs | Request tabs | Top 50 tabs