» » »

Showbread, Oh Emetophobia Tabs (ver.3)

Artists:  A B C D E F G H I J K L M N O P Q R S T U V W X Y Z # 

Oh Emetophobia Tabs (ver.3)

Showbread Tabs
Rating:
0/5 (0 votes)
Oh Emetophobia lessons Tabs too difficult? Try these video lessons and learn fast
                Intro (Keytar and Drums)

Verse

e|-----------------------------------------------------------------------------|
B|-----------------------------------------------------------------------------|
G|-----------------------------------------------------------------------------|
D|-5-6-7-------5-6-7-------5-6-7-------5-6-7-----------------------------------|
A|-3-4-5--5----3-4-5--5----3-4-5--5----3-4-5--5--------------------------------|
E|--------3-----------3-----------3-----------3--------------------------------|

e|---------------------------------------------------------------------------|
B|---------------------------------------------------------------------------|
G|---------------------------------------------------------------------------|
D|--------------6--6--6--3-3-3-3-3-3--5--5--5--------------------------------|
A|-5-5-5-5-5-5--4--4--4--1-1-1-1-1-1--3--3--3--------------------------------|
E|-3-3-3-3-3-3---------------------------------------------------------------|
Repeat this four times, then

Chorus
1
e|---------------------------------------------------------------------------------------|
B|---------------------------------------------------------------------------------------|
G|---------------------------------------------------------------------------------------|
D|--7--7--7--7-----5--5--5--5-----3--3--3--3---------------------------------------------|
A|--5--5--5--5-----3--3--3--3-----1--1--1--1--5--5--5--5---------------------------------|
E|--------------------------------------------3--3--3--3---------------------------------|
2
e|--------------------------------------------------------------------------------------|
B|--------------------------------------------------------------------------------------|
G|--------------------------------------------------------------------------------------|
D|--7--7--7--7----5--5--5--5------------------------------------------------------------|
A|--5--5--5--5----3--3--3--3----3--3--3--3----7--7--7--7--------------------------------|
E|------------------------------1--1--1--1----5--5--5--5--------------------------------|

then back to 1, then
 7 7 7 7 7 7 7 7 3 3 3 3
"5-5-5-5-5-5-5-5-1-1-1-1-0----------------------|

e|-----------------------------------------------------------------------------|
B|-----------------------------------------------------------------------------|
G|-----------------------------------------------------------------------------|
D|-----------------------------------------------------------------------------|
A|-9-9-9--5----9-9-9--5----9-9-9--5----3-3-3-----------------------------------|
E|-7-7-7--3----7-7-7--3----7-7-7--3----1-1-1--0--------------------------------|

e|-----------------------------------------------------------------------------|
B|-----------------------------------------------------------------------------|
G|-----------------------------------------------------------------------------|
D|-5-6-7-------5-6-7-------5-6-7-------5-6-7-----------------------------------|
A|-3-4-5--5----3-4-5--5----3-4-5--5----3-4-5--5--------------------------------|
E|--------3-----------3-----------3-----------3--------------------------------|

e|---------------------------------------------------------------------------|
B|---------------------------------------------------------------------------|
G|---------------------------------------------------------------------------|
D|--------------6--6--6--3-3-3-3-3-3--5--5--5--------------------------------|
A|-5-5-5-5-5-5--4--4--4--1-1-1-1-1-1--3--3--3--------------------------------|
E|-3-3-3-3-3-3---------------------------------------------------------------|
Repeat this four times.

Chorus
1
e|---------------------------------------------------------------------------------------|
B|---------------------------------------------------------------------------------------|
G|---------------------------------------------------------------------------------------|
D|--7--7--7--7-----5--5--5--5-----3--3--3--3---------------------------------------------|
A|--5--5--5--5-----3--3--3--3-----1--1--1--1--5--5--5--5---------------------------------|
E|--------------------------------------------3--3--3--3---------------------------------|
2
e|--------------------------------------------------------------------------------------|
B|--------------------------------------------------------------------------------------|
G|--------------------------------------------------------------------------------------|
D|--7--7--7--7----5--5--5--5------------------------------------------------------------|
A|--5--5--5--5----3--3--3--3----3--3--3--3----7--7--7--7--------------------------------|
E|------------------------------1--1--1--1----5--5--5--5--------------------------------|

then back to 1, then
 7 7 7 7 7 7 7 7 3 3 3 3
"5-5-5-5-5-5-5-5-1-1-1-1-0----------------------|

bend these, at the open E slide up and down the string very quickly
e|---------------------------------------------------------------------------|
B|---------------------------------------------------------------------------|
G|---------------------------------------------------------------------------|
D|---------------------------------------------------------------------------|
A|-8-8-8-8-------------------------------------------------------------------|
E|----------0----------------------------------------------------------------|

e|-----------------------------------------------------------------------------|
B|-----------------------------------------------------------------------------|
G|-----------------------------------------------------------------------------|
D|-------------------------------------------------------9-7-5-----------------|
A|------5-------5------5---5---6-------5-------5-----5-------------------------|
E|-0-0--3--0-0--3-0--0-3-0-3-0-4--0-0--3--0-0--3-0-0-3-0-----------------------|
"9-7-5" can also be played on the e string as "7-5-3---------------------------|.


e|---------------------------------------------------------------------------|
B|---------------------------------------------------------------------------|
G|---------------------------------------------------------------------------|
D|---------------------------------------------------------------------------|
A|-8-7-5---------------------------------------------------------------------|
E|-6-5-3-0-------------------------------------------------------------------|
Repeat this twelve times. At the end of the fourth time, end after one strum on open E, 
strum but mute all strings. After the eighth time, hit open E and slide all the way up 
string. After the twelfth time, end on E string "3 over 5".

e|---------------------------------------------------------------------------|
B|---------------------------------------------------------------------------|
G|---------------------------------------------------------------------------|
D|3--------------6--6--6--3-3-3-3-3-3--5--5--5-------------------------------|
A|1-5-5-5-5-5-5--4--4--4--1-1-1-1-1-1--3--3--3-------------------------------|
E|--3-3-3-3-3-3--------------------------------------------------------------|
Repeat this four times.

Chorus
1
e|---------------------------------------------------------------------------------------|
B|---------------------------------------------------------------------------------------|
G|---------------------------------------------------------------------------------------|
D|--7--7--7--7-----5--5--5--5-----3--3--3--3---------------------------------------------|
A|--5--5--5--5-----3--3--3--3-----1--1--1--1--5--5--5--5---------------------------------|
E|--------------------------------------------3--3--3--3---------------------------------|
2
e|--------------------------------------------------------------------------------------|
B|--------------------------------------------------------------------------------------|
G|--------------------------------------------------------------------------------------|
D|--7--7--7--7----5--5--5--5------------------------------------------------------------|
A|--5--5--5--5----3--3--3--3----3--3--3--3----7--7--7--7--------------------------------|
E|------------------------------1--1--1--1----5--5--5--5--------------------------------|

then back to 1, then
 7 7 7 7 7 7 7 7 3 3 3 3
"5-5-5-5-5-5-5-5-1-1-1-1-0----------------------------------------|
                                                              e|--|
B|----------------------------------------------------------------|
G|----------------------------------------------------------------|
D|----------------------------------------------------------------|
A|-9-9-9--5----9-9-9--5----9-9-9--5----3-3-3-3--------------------|
E|-7-7-7--3----7-7-7--3----7-7-7--3----1-1-1-1--------------------|
first time do this ^, second time after the four "1 over 3", strum four times open E and end on open E.
            
Submit corrections

comments powered by Disqus
↑ Back to top | Showbread Tabs for Oh Emetophobia. Lyrics for acoustic guitar and electric guitar. Tablatures and chords are parodies/interpretations of the original songs. You may use it for private study, scholarship, research or language learning purposes only