>
 >
Oh! Emetophobia! 1

Oh! Emetophobia! 1 Guitar Tabs

Showbread - Oh! Emetophobia! 1 chords, tabs, tablatures, lyrics

Guitar lessons | Add/correct | Request | Top 50 tabs Artists:  A B C D E F G H I J K L M N O P Q R S T U V W X Y Z 0-9

Oh! Emetophobia! 1 Guitar Tabs – Showbread

CD, Sheet music, Poster

Do you like Oh! Emetophobia! 1? Share with your friends now
TabsTabs v2Tabs v3
Oh! Emetophobia!
Showbread
Age of Reptiles
Tuning: Standard


Legend:

h = hammer on
p = pull off
~ = let ring
/ = slide up


Guitar 1 (or keytar if you prefer) plays with phaser effect:

ATTENTION! THERE ARE TWO WAYS TO PLAY THE KETAR PART. NUMBER 1:

----------------------------------------------------|
----------------------------------------------------|
----------------------------------------------------|
----------------------------------------------------|
--------------3-- 5--------------3---h5p------------|   x 6
---3-3---6-3----3---3---3-3—6-3----3------3---------|

THIS ^ IS MORE ACCURATE BUT IT’S ANNOYING TO PLAY. HENCE THE SIMPLE VERSION (AND THIS IS 
FUN TO PLAY):

-----------------------------------------|
-----------------------------------------|
-----------------------------------------|
-----------------------------------------|
---------3--5---------3--h5p-------------|   x 6
---3--6---------3-—6----------3----------|

OK, NOW WHILE THAT’S GOING ON FOR THE INTRO, THERE’S GUITAR 2 IN THE BACKGROUND THAT 
THE VERSE AT 0:03-4.

---------------------------------|
---------------------------------|
---3-3-3-------------------------|
---3-3-3---5~--------------------|  x 4
---1-1-1---5~--------------------|
-----------3~--------------------|

“I NEVER HAD A CHOICE!” :  E ---1/10------ |




ALRIGHT. FOR THE REST OF THE VERSE GUITAR 1 (OR KEYTAR PLAYS THE SAME THING BUT IT’S AT 
LOWER VOLUME OR GUITAR 2 IS TURNED UP OR ON A LOUDER DISTORTION.) GUITAR 2 PLAYS:

---------------------------------------------|
---------------------------------------------|
---------------------------------------------|
----5-5-5-5-5-5---------8-8-8-8-8-8----------| x 6
----5-5-5-5-5-5--3-h5p--8-8-8-8-8-8--3-h5p---|
----3-3-3-3-3-3---------6-6-6-6-6-6----------|


BECAUSE THE KEYTAR STILL PLAYS THE SAME THING THROUGHOUT THE VERSE, MAKE SURE THAT 
ON THE E STRING FOR GUITAR 2 IS IN TIME WITH THE “3-h5p” FOR THE KEYTAR (OR GUITAR 1). ALSO, 
THE PART ABOVE, THE STRUMMING AROUND THE 3RD TIME IS DIFFERENT: IT’S JUST A SERIES OF DOWNSTROKES.


CHORUS! =D

OK! I’D LIKE TO CONGRATULATE YOU FOR MAKING IT THIS FAR! ANYWAYS THERE’S TWO PARTS TO 
CHORUS: KEYTAR AND GUITAR. JUST LIKE BEFORE IN THE VERSES. THE GUITAR GOES LIKE THIS:

-------------------------------------------------|
-------------------------------------------------|
---7-7-7-7-7--5-5-5-5-5--3-3-3-3-3---------------|
---7-7-7-7-7--5-5-5-5-5--3-3-3-3-3--5-5-5-5-5----|
---5-5-5-5-5--3-3-3-3-3--1-1-1-1-1--5-5-5-5-5----|   x 3
------------------------------------3-3-3-3-3----|

THEN..

---------------------------------------------------------------------|
---------------------------------------------------------------------|
-----------------------------3-3-3-------3-3-3-------3-3-3-----------|
---7-7-7-7-7-7-7-7-7---3~----3-3-3--5-5--3-3-3--5-5--3-3-3--5-5—-3~--|
---7-7-7-7-7-7-7-7-7---3~----1-1-1--5-5--1-1-1--5-5--1-1-1--5-5—-3~--|
---5-5-5-5-5-5-5-5-5---1~-----------3-3---------3-3---------3-3--1~--|


^ “THREE CHEERS FOR THE END OF 21 YEARS..” ^

AHA! BUT THAT’S NOT THE END OF THE CHORUS! THERE’S STILL THE KEYTAR PART! (WHICH IS MY 
AND IS PLAYED AT THE SAME TIME AS GUITAR 2 UP ABOVE) I haven’t had time to tab it yet 
coming..soon.





Comments


Popular Showbread tabs & chords
The Fear Of God 1 Chords
Until We Meet Again Chords
Dinosaur Bones Tabs
Missing Wife 3 Tabs
Oh Emetophobia 3 Tabs
The Dissonance Of Discontent Tabs
The Pig Nervosa 2 Tabs
The Prison Comes Undone Tabs
The Sky Alpha 1 Tabs
Age Of Reptiles Ukulele


Song lyrics



↑ Back to top | Tablatures and chords are parodies/interpretations of the original songs. You may use it for private study, scholarship, research or language learning purposes only
© 2014 AZChords.com Contact us | Privacy policy | DMCA | Add/correct tabs | Request tabs | Top 50 tabs