» » »

Shawn Mcdonald, Beautiful Tabs (ver.1)

Artists:  A B C D E F G H I J K L M N O P Q R S T U V W X Y Z # 

Beautiful Tabs (ver.1)

Shawn Mcdonald Tabs
 Rating:
4/5 (5 votes)
Beautiful lessons Tabs too difficult? Try these video lessons and learn fast
1
                Shawn Mcdonald
Simply Nothing

tuning: standard
  capo: 5

the other version looked really confusing so i'm posting 
up my version. hopefully it isn't as confusing as the other 
one was. it shouldn't be too hard but just listen to the song 
to get a feel for the transitions and basic pattern.

chords used: (for stumming version)
   C:032010
G/B?:020010
 Am7:002010
   F:133211
   G:320003
  Am:002210



intro/verse: (strumming: C,G/B,Am7,G/B,C)

e|----------------------|-----------------------|
B|-----1----------------|-----1-----------------|
G|-----0--0----0------0-|-----0--0----0------0--|
D|---2---2----2------0--|---2---2----2------0---|
A|-3--------3----0h2----|-0--------0----0h2-----|
E|----------------------|-----------------------|
 (for last repeat only play first half of verse)

verse-chorus transition:

e|-----------------------|
B|-----1--------1p0-0----|
G|-----0--0----0---0-----|
D|---2---2----2----------|
A|-0--------0------------|
E|-----------------------|

chorus: (strumming:F,G,Am,C)

e|---------------------------------------|
B|-----1--------1--------0--------0--1---|
G|-----0--0-----0--0-----0--0----0--0----|
D|---0---0----0---0----0---0----0--------|
A|---------------------------------------|
E|-1--------1--------3--------3----------|

(cont'd)

e|---------------------------------------|
B|-----1--------1--------1--------1------|
G|-----0--0-----0--0-----0--0-----0--0---|
D|---2---2----2---2----2---2----2---2----|
A|-0--------0--------3--------3----------|
E|---------------------------------------|
 (for last repeat only play first half of chorus)

chorus-verse transition:

e|------------------------------|
B|-----1-------1------------1---|
G|----0-0-0----0------0-----0---|
D|---2---2----2------0----2-----|
A|-3--------3----0h2----0-------|
E|------------------------------|

i left out some stuff to make it easier to tab and learn so 
you'll have to listen to the song in order to pick up on some
of the other stuff Shawn does. don't worry, it isn't very hard, 
although you may have some trouble singing and playing at the 
same time.
GOD BLESS!! ^_^
            
Submit corrections

comments powered by Disqus
↑ Back to top | Shawn Mcdonald Tabs for Beautiful. Lyrics for acoustic guitar and electric guitar. 1 Tablatures and chords are parodies/interpretations of the original songs. You may use it for private study, scholarship, research or language learning purposes only