>
 >
Okey Lang

Okey Lang Guitar Tabs

Shamrock - Okey Lang chords, tabs, tablatures, lyrics

Guitar lessons | Add/correct | Request | Top 50 tabs Artists:  A B C D E F G H I J K L M N O P Q R S T U V W X Y Z 0-9

Okey Lang Guitar Tabs – Shamrock

CD, Sheet music, Poster

Do you like Okey Lang? Share with your friends now
ChordsChords v2TabsUkulele
***************************************************|
title : okey lang                                  |
band : shamrock                                    |
***************************************************

its my 1st tym to cnd a tab..sana po magustuhan nyo...paki rate din po..^_^
 
intro : g-c#m-b-d

     g   c#m   b   d

e|---3----4----2---2------------|
B|---3----5----3---3------------|
G|---0----6----3---2------------|
D|---0----6----3---0------------|
A|---2----4----2---0------------|
E|---3----4----2---0------------|

            g                          c#m
e|------------------------|------------------------------|
B|--7----7----7-----7-----|--5-----5-----5-----5---------|
G|----6----6-----6-----6--|-----4-----4-----4-----4------|
D|------------------------|------------------------------|
A|------------------------|------------------------------|
E|------------------------|------------------------------|

            b                           d
e|------------------------|------------------------------|
B|--4----4----4-----4-----|--3-----3-----3-----3---------|
G|----4----4----4----4----|-----3-----3-----3-----3------|
D|------------------------|------------------------------|
A|------------------------|------------------------------|
E|------------------------|------------------------------|


verse:
      c          g/b            am              f

e|----0-----------3--------------0--------------0-----------|
B|----1-----------0--------------1--------------1-----------|
G|----0-----------0--------------2--------------0-----------| 
D|----2-----------0--------------2--------------3-----------| x2
A|----3-----------2--------------0--------------3-----------|
E|----0-----------x--------------0--------------0-----------|

 - c        g/b      
--eto na naman ang dilim
 - a                        f
--unti-unting bumabalot sa hangin
 - c         g/b            
--dito ka sa akin lumapit
 - a                       f
--na parang basag na salamin

refrain:
     am       g       f        f         g
 
e|---0--------3-------0--------0---------3---------------|
B|---1--------3-------1--------1---------3---------------|
G|---2--------0-------0--------0---------0---------------|
D|---2--------0-------3--------3---------0---------------|  x2
A|---0--------2-------3--------3---------2---------------|
E|---0--------3-------0--------0---------3---------------|

 - am      g         f 
--alam ko ang iyong gusto
 - f              g
--na mapawi ang lungkot
 - am      g         f
--isip mong litung - lito
 - f                 g
--at maraming tanong ng puso

chorus:
      c          g/b            am              f

e|----0-----------3--------------0--------------0-----------|
B|----1-----------0--------------1--------------1-----------|
G|----0-----------0--------------2--------------0-----------| 
D|----2-----------0--------------2--------------3-----------| 
A|----3-----------2--------------0--------------3-----------|
E|----0-----------x--------------0--------------0-----------|

 -      c          g/b
--okey lang, ayos lang
 -      am
--kung hindi para sa iyo
 - f
--wag kanang magtampo
 -      c          g/b
--okey lang, kapit lang
 -      am           f
--hindi magtatagal liliwanag na muli ang mundo


verse 2:
      c          g/b            am              f

e|----0-----------3--------------0--------------0-----------|
B|----1-----------0--------------1--------------1-----------|
G|----0-----------0--------------2--------------0-----------| 
D|----2-----------0--------------2--------------3-----------| x2
A|----3-----------2--------------0--------------3-----------|
E|----0-----------x--------------0--------------0-----------|

 - c           g/b
--ngumiti ka lang kaibigan
 - am                                 f
--sapagkat ang buhay natin ay sadyang ganyan
 - c          g/b
--dumarating ang kabiguan
 - am                           f
--ngunit ang pag asa ay laging nandyan

 
refrain:
     am       g       f        f         g
 
e|---0--------3-------0--------0---------3---------------|
B|---1--------3-------1--------1---------3---------------|
G|---2--------0-------0--------0---------0---------------|
D|---2--------0-------3--------3---------0---------------|  x2
A|---0--------2-------3--------3---------2---------------|
E|---0--------3-------0--------0---------3---------------|

 - am      g         f 
--alam ko ang iyong gusto
 - f              g
--na mapawi ang lungkot
 - am      g         f
--isip mong litung - lito
 - f                 g
--at maraming tanong ng puso

chorus:
      c          g/b            am              f

e|----0-----------3--------------0--------------0-----------|
B|----1-----------0--------------1--------------1-----------|
G|----0-----------0--------------2--------------0-----------| 
D|----2-----------0--------------2--------------3-----------| x2
A|----3-----------2--------------0--------------3-----------|
E|----0-----------x--------------0--------------0-----------|

 -      c          g/b
--okey lang, ayos lang
 -      am
--kung hindi para sa iyo
 - f
--wag kanang magtampo
 -      c          g/b
--okey lang, kapit lang
 -      am           f
--hindi magtatagal liliwanag na muli ang mundo.......

adlib: c-g/b-am-f

Bridge:

       am          g             f            g
e|------0----------3-------------0------------3---------|
B|------1----------3-------------1------------3---------|
G|------2----------0-------------0------------0---------|
D|------2----------0-------------3------------0---------|
A|------0----------2-------------3------------2---------|
E|------0----------3-------------0------------3---------|

 - am          g
--kahit anong mangyari.....
 - f
--wag kang bibitaw....
 - g
--wag kang bibitaw.......


chorus:
      c          g/b            am              f

e|----0-----------3--------------0--------------0-----------|
B|----1-----------0--------------1--------------1-----------|
G|----0-----------0--------------2--------------0-----------| 
D|----2-----------0--------------2--------------3-----------| x2
A|----3-----------2--------------0--------------3-----------|
E|----0-----------x--------------0--------------0-----------|

 
 -      c          g/b
--okey lang, ayos lang
 -      am
--kung hindi para sa iyo
 - f
--wag kanang magtampo
 -      c          g/b
--okey lang, kapit lang
 -      am           f                                g
--hindi magtatagal liliwanag na muli ang mundo.......oohh
 - am                f
--hindi magtatagal liliwanag na muli ang mundo...


thx...paki rate po...





Comments


Popular Shamrock tabs & chords
Alipin Bass Tabs
Haplos 1 Chords
Hold On 1 Chords
Hold On 2 Chords
Paano 1 Chords
Magtiwala Ka Tabs
I Wanna Be Ukulele
Magtiwala Ka Ukulele
Ngiti Ukulele
Sana Ukulele


Song lyrics



↑ Back to top | Tablatures and chords are parodies/interpretations of the original songs. You may use it for private study, scholarship, research or language learning purposes only
© 2014 AZChords.com Contact us | Privacy policy | DMCA | Add/correct tabs | Request tabs | Top 50 tabs