» » »

Shamrock, Naaalala Ka Tabs (ver.1)

Artists:  A B C D E F G H I J K L M N O P Q R S T U V W X Y Z # 

Naaalala Ka Tabs (ver.1)

Shamrock Tabs
Rating:
0/5 (0 votes)
Naaalala Ka lessons Tabs too difficult? Try these video lessons and learn fast
                (Intro)
Tuning:EADGBe

     F
e|---1---1--1----1----------------17------15p12--12/---------------15------|
B|---1-----------------10---13-16---16h18-------------12-14-16--16----14\--|
G|---2--------------------14----------------------------------17-----------|
D|---3---------------------------------------------------------------------|
A|---3---------------------------------------------------------------------|
E|---1---------------------------------------------------------------------|

  verse:
     cM7            Bm7            CM7        Bm7
e|---0---------------2--------------0----------2---------------------------|
B|---0---------------3--------------0----------3---------------------------|
G|---0---------------4--------------0----------4---------------------------|
D|---2---------------4--------------2----------4---------------------------|
A|---3---------------2--------------3----------2---------------------------|
E|---0---------------x--------------0----------x---------------------------|
  kay sarap...
            

comments powered by Disqus
↑ Back to top | Shamrock Tabs for Naaalala Ka. Lyrics for acoustic guitar and electric guitar. Tablatures and chords are parodies/interpretations of the original songs. You may use it for private study, scholarship, research or language learning purposes only