» » »

Shamrock, Magtiwala Ka Tabs (ver.1)

Artists:  A B C D E F G H I J K L M N O P Q R S T U V W X Y Z # 

Magtiwala Ka Tabs (ver.1)

Shamrock Tabs
 Rating:
4/5 (4 votes)
Magtiwala Ka lessons Tabs too difficult? Try these video lessons and learn fast
                magtiwala k!!!
shomrock:

INTRO:
 ------------------------/\/\-----|
|------x-x-x--x--x-x-----xxxx-----|
|------2-0-2--2--2-0-2---xxxx-----|
|------2-0-2--2--2-0-2---xxxx-----|x2
|------2-0-2--2--2-0-2---xxxx-----|
|------0-0-0--0--0-0-0---xxxx-----|
|------------------------xxxx-----|


|------x-x-x--x--x-x-----x-----|
|------2-0-2--2--2-0-2---3~~---|
|------2-0-2--2--2-0-2---3~~---|
|------2-0-2--2--2-0-2---3~~---|
|------0-0-0--0--0-0-0---x-----|
|------------------------x-----|

 ------------------------/\/\-----|
|------x-x-x--x--x-x-----xxxx-----|
|------2-0-2--2--2-0-2---xxxx-----|
|------2-0-2--2--2-0-2---xxxx-----|x2
|------2-0-2--2--2-0-2---xxxx-----|
|------0-0-0--0--0-0-0---xxxx-----|
|------------------------xxxx-----|


|------x-x-x--x--x-x-----x-----|
|------2-0-2--2--2-0-2---3~~---|
|------2-0-2--2--2-0-2---3~~---|
|------2-0-2--2--2-0-2---3~~---|
|------0-0-0--0--0-0-0---x-----|
|------------------------x-----|

|----X-|	|----X-|	|----X-|	|----X--|
|----2-|	|----5-|	|----7-|	|----10-|
|----2-|	|----5-|	|----7-|	|----10-|
|----2-|	|----5-|	|----7-|	|----10-|
|----0-|	|----3-|	|----5-|	|----8--|
|------|	|------|	|------|	|-------|

|----X-|	|----X-|	|----X---|	|-------------------|
|----2-|	|----5-|	|----7~~-|	|----12~12~12~12/10-|
|----2-|	|----5-|	|----7~~-|	|----12~12~12~12/10-|
|----2-|	|----5-|	|----7~~-|	|----12~12~12~12/10-|
|----0-|	|----3-|	|----5~~-|	|-------------------|
|------|	|------|	|--------|	|-------------------|

verse: I

A-G-F-G
A-G-F-G

pre cHORUS:

F-G
F-G

cHORUS:

sa CHorus,pakinggan nyo nlng maigi ung pg strum
kc nkakatamad mg-type jejejejej timing lang!!!! pro magdali lng nmn eh

|----X-|	|----X-|	|----X-|	|----X--|
|----2-|	|----5-|	|----7-|	|----10-|
|----2-|	|----5-|	|----7-|	|----10-|
|----2-|	|----5-|	|----7-|	|----10-|
|----0-|	|----3-|	|----5-|	|----8--|
|------|	|------|	|------|	|-------|

|----X-|	|----X-|	|----X---|	|-------------------|
|----2-|	|----5-|	|----7~~-|	|----12~12~12~12/10-|
|----2-|	|----5-|	|----7~~-|	|----12~12~12~12/10-|
|----2-|	|----5-|	|----7~~-|	|----12~12~12~12/10-|
|----0-|	|----3-|	|----5~~-|	|-------------------|
|------|	|------|	|--------|	|-------------------|

vERSE II:
pre Chorus:

F-G
F-F>>>>>>>>>>>>>dto sa part n to my maririnig kayong prang ganito

 ---PM~~~~~~~~~~~~~~-
|--------------------|
|--------------------|
|--------4---5-4---4-|
|----5-5---5-----5---|
|--------------------|
|--------------------|
 ---PM~~~~~~~~~~~~~~-
|--------------------|
|--------------------|
|--------4---5-4---4-|
|----5-5---5-----5---|
|--------------------|
|--------------------|>>>>>>itong licks n to all the way to hanggang sa CHORUS!!!!! okie???
Chorus:

|----X-|	|----X-|	|----X-|	|----X--|
|----2-|	|----5-|	|----7-|	|----10-|
|----2-|	|----5-|	|----7-|	|----10-|
|----2-|	|----5-|	|----7-|	|----10-|
|----0-|	|----3-|	|----5-|	|----8--|
|------|	|------|	|------|	|-------|>>>>>>>>>>>>>>>>>>>ito nnmn timing lng dto madali lng nmn eh..

|----X-|	|----X-|	|----X---|	|-------------------|
|----2-|	|----5-|	|----7~~-|	|----12~12~12~12/10-|
|----2-|	|----5-|	|----7~~-|	|----12~12~12~12/10-|
|----2-|	|----5-|	|----7~~-|	|----12~12~12~12/10-|
|----0-|	|----3-|	|----5~~-|	|-------------------|
|------|	|------|	|--------|	|-------------------|

And FINALY
my FAV.!!!!!!!!!
THe lead!!!!!


kung ngustohan nyo man ung lead ko ipPLUG ko n ung TAB pra s lead nya okie??
basta iRATE nyo o kya magCOMMENT kau pra malaman ko kung nagustohan nyo talga oh indi tnx....
keep rock'n

\m/(o.0)\m/
            
Submit corrections

comments powered by Disqus
↑ Back to top | Shamrock Tabs for Magtiwala Ka. Lyrics for acoustic guitar and electric guitar. Tablatures and chords are parodies/interpretations of the original songs. You may use it for private study, scholarship, research or language learning purposes only